Oops, an error
Loading. Please wait.

Libertad Tab

version 2
version 2

Whole song

Interactive

35 views 1 this week
no commentswrite comment
1 2 3 4 5
3 more votes to show rating
add to favorites
launch autoscroll
font size
0
reset
how to read this tab
guitar tuner
×
Best way to learn
"Libertad"
Autoscroll
slow
fast
+/-
esc
set tempo
stop
Saludos a todos los de Iglesia Union e Iglesia Monte Horeb de Tijuana =D

(/)Slide (h)Hammer On (p)Pull Off
(b)Bend (r)Release (v)Vibrato

E|--8h10--8-----------------------------------------
B|-----------8h10--8-6--------8/10--8v------8/10-8v-
G|----------------------7--5------------5-7---------
D|--------------------------------------------------
A|--------------------------------------------------
E|--------------------------------------------------

E|------8-------------------------8-----
B|---------8/10v--10/8--6--8--6v--------
G|5--7----------------------------------
D|--------------------------------------
A|--------------------------------------
E|--------------------------------------

E|-------------------------------------------------------------
B|--8/10v-----10-----------8-----------------------------------
G|---------9------9--8--7-----7----------------------7--10--7--
D|-------------------------------10--9--8--7--8--10------------
A|-------------------------------------------------------------
E|-------------------------------------------------------------

E|-------------------------------------------
B|-----------------------------------6-------
G|-----------------------5-----5--7-----5/7v-
D|--6p5p3v----5--3--5/7-----7----------------
A|-------------------------------------------
E|-------------------------------------------


E|--5-----------------------------------------
B|-----6-----8--------------------------------
G|--------7-----9-----------------------------
D|-----------------10----------10-------------
A|---------------------10--12------12---------
E|-------------------------------------13-----

E|-----------------------
B|-----------------------
G|-----------------------
D|-----------------------
A|--------------10--12---
E|--10--12--13-----------

E|-------------------------------------------------------------
B|-------------------------------------10--13--13/15--13--10v--
G|----------------------9--10--12--13--------------------------
D|--------------10--12-----------------------------------------
A|------10--12-------------------------------------------------
E|--13---------------------------------------------------------


E|-------------------------------------------------------------------------
B|-------------------------------------------------------------------------
G|--13-12-10---------------------------------------------------------10----
D|-----------12-10------------------------------------------10--12------12v
A|-----------------12--11--10--------------------10--11--12----------------
E|----------------------------13--10--8--10/13-----------------------------


E|----------------------------------------------------------
B|----------------------------------------------------------
G|--10------12/14--14--12/14--14--12/14--14v--14/12--10-----
D|------12-----------------------------------------------12v
A|----------------------------------------------------------
E|----------------------------------------------------------

E|-10-------------------------------------------
B|-13b15v--r13--10------------------------------
G|------------------12b13r12----12--10--12/14v--
D|----------------------------------------------
A|----------------------------------------------
E|----------------------------------------------

-Mario
Suggest correction
Give kudos to tab author, rate the tab!
1 2 3 4 5
comments
print report bad tab
guest
You may want to rate the tab now too:
select rating
Wanna post a correction for this tab? Suggest correction