Oops, an error
Loading. Please wait.

Manda Señor Bass

27 views 1 this week
no commentswrite comment
1 2 3 4 5
3 more votes to show rating
add to favorites
launch autoscroll
font size
0
reset
guitar tuner
Autoscroll
slow
fast
+/-
esc
set tempo
stop
      Que tal:

      Esta alabanza es una de mis preferidas y es por eso que les 
doy las figuras; lo saque rápido y espero que no tenga defectos
grandes y notorios. Espero les sea util y de gran bendición...


::Intro Solo piano::

::Intro::

E |-2----2--4--------------------------2---2--4------------------------2--
A |-----------------2---2-----2--4------------------2---2-----2--4--------
D |-----------------------------------------------------------------------
G |-----------------------------------------------------------------------
B |-----------------------------------------------------------------------

E |--2?4------------------------------------------
A |----------2--2---2--4----6--6---4----6--6--6---
D |-----------------------------------------------
G |-----------------------------------------------
B |-----------------------------------------------


::Verso 1::                ::2 Veces::

E |---2----2--2------------------------------------2-----2--2--------------
A |------------------4---4---4------2----2--2------------------------------
D |------------------------------------------------------------------------
G |------------------------------------------------------------------------
B |------------------------------------------------------------------------


::Pre-Coro::

4E |--2-----2----2--2---------4--------------------------------------4---2--
A |-2----------------------2-------2------4---4--4-----4----4--4------------
D |-------------------------------------------------------------------------
G |-------------------------------------------------------------------------
B |-------------------------------------------------------------------------


::Coro::

E |---2----2--2-----------------2-----2--2---------------------2-----2--2---
A |-----------------2----2--2-------------------2-----2--2------------------
D |-------------------------------------------------------------------------
G |-------------------------------------------------------------------------
B |-------------------------------------------------------------------------

E |--------------2-------------------------------
A |-4-------4----------2----2--2-----4--4---2----
D |------4---------------------------------------
G |----------------------------------------------
B |----------------------------------------------


::Verso 2::

E |--2----2--2------------------------------------2---4---2----------------
A |----------------4----4--4-----2----2--2---------------------------------
D |------------------------------------------------------------------------
G |------------------------------------------------------------------------
B |------------------------------------------------------------------------


::Pre-Coro 2::

E |------4----------2----2--2----------4--------------------------------------------
A |-2-------2----------------------2-------2-----4----4--4-------2s4--4--4--4--4----
D |---------------------------------------------------------------------------------
G |---------------------------------------------------------------------------------
B |---------------------------------------------------------------------------------


   Nuevamente si tienen dudas o sugerencias manden un mail
y sera de bendición a mi vida.

         G O D  B L E S  Y O U  ! ! !
Suggest correction
Give kudos to tab author, rate the tab!
1 2 3 4 5
comments
print report bad tab
guest
Wanna post a correction for this tab? Suggest correction