Oops, an error
Loading. Please wait.

Me Dice Que Me Amas Tab

226 views 1 this week
no commentswrite comment
1 2 3 4 5
3 more votes to show rating
add to favorites
launch autoscroll
font size
0
reset
how to read this tab
guitar tuner
×
Best way to learn
"Me Dice Que Me Amas"
Autoscroll
slow
fast
+/-
esc
set tempo
stop
AQUÍ LES DEJO ME DICE QUE ME AMA VERSION REQUINTO.

Inicia piano.
Luego sigue el requinto:


E------------------------------------------
A---------------------------------4/6------
D-7/9-----9------------------7?5-------5---
G-----7-7----7/9-7---4-5?4/6---------------
B------------------------------------------
E------------------------------------------


En la parte intermedio:
Piano
Luego otra vez requinto:

E------------------------------------------
A---------------------------------4/6------
D-7/9-----9------------------7?5-------5---
G-----7-7----7/9-7---4-5?4/6---------------
B------------------------------------------
E------------------------------------------


Parte del final:

E--------------------------------------------
A-----------------------------------8-6-4---
D-7/9-----9------------------7-5-7----------5
G-----7-7----7/9-7---4-5-4/6-----------------
B--------------------------------------------
E--------------------------------------------


ESPERO QUE LES SIRVA,TOME COMO BASE EL DVD EL AIRE DE TU CASA. BENDICIONES.
Suggest correction
Give kudos to tab author, rate the tab!
1 2 3 4 5
comments
print report bad tab
guest
You may want to rate the tab now too:
select rating
Wanna post a correction for this tab? Suggest correction