Oops, an error
Loading. Please wait.

Mi Corazón Te Canta Chords

version 1
version 1

Whole song

177 views 6 this week
no commentswrite comment
1 2 3 4 5
3 more votes to show rating
add to favorites
launch autoscroll
font size
0
reset
transpose
0
reset
simplify chords
display chords
guitar tuner
Autoscroll
slow
fast
+/-
esc
set tempo
stop
Help us to improve Ultimate-Guitar.com Take our survey!
×
Dios les bendiga, estos son las posisiones originales, la cancion original
esta grabada
en Ab porque Daniel Fraire toca la guitarra un semitono mas abajo.
Ahi estan tocando un semitono arriba, si la afinan como el tocan
A orignal.

intro

Aadd2/Amaj7/Dadd2/Dm9

Aadd2      Amaj7  A7                 Dadd2
  Preciosa sangre,   que mi vida cambio
       Dm9                A/E
Mis pecados mis culpas lavo
              B7/D#              E7sus4 E
Ha quedado atras el pasado sin Dios
Aadd2          Amaj7
  Fue en esa cruz
             Dadd2
Donde la historia cambio
          Dm9                 F#m7(add4)
Donde mi vida tomo otro sentido
                B       E7sus4    Dadd2 Dm9
Donde yo encontre la razon de vivir

Coro

     Aadd2   C#m7
//Jesus, Jesus
        Bm7(add4)
Mi corazon te canta
        Dm9
Mi corazon te canta
   Aadd2
Jesus.//

   Aadd2     Amaj7   A7   Dadd2  Dm9   A/E   B7/D#  E7sus4
e----------------------------------------------2----------
B---------------------------3------3----------------------
G----6---------6------6-----2------2----6------2------7---
D----7---------6------5------------3----7------1------7---
A----------------------------------x----7------x------7---
E----------------------------------x-----------x----------

   F#m7(add4)   C#m7   Bm7(add4)
e---------------------------------------------------------
B---------------------------------------------------------
G-----2-----------6--------7---------------------------------
D-----4-----------6--------7---------------------------------
A-----4-----------4--------x---------------------------------
E--------------------------7-------------------------------

Dios les bendiga.
Suggest correction
Give kudos to tab author, rate the tab!
1 2 3 4 5
comments
print report bad tab
guest
You may want to rate the tab now too:
select rating
Wanna post a correction for this tab? Suggest correction