Oops, an error
Loading. Please wait.

Mi Corazón Te Canta Tab

version 1
version 1

Whole song

93 views 6 this week
no commentswrite comment
1 2 3 4 5
3 more votes to show rating
add to favorites
launch autoscroll
font size
0
reset
how to read this tab
guitar tuner
Autoscroll
slow
fast
+/-
esc
set tempo
stop
Help us to improve Ultimate-Guitar.com Take our survey!
×
ahi les mando esta cancion de Adrian Romero, es mi primera
transcripcion pero creo que esta bien escrita.
Dios les bendiga.

intro

e ----8-----8---9---8---9
B -9-----8---------------
G -----------------------
D -----------------------
A -----------------------
E -----------------------

e ------------------------------------------------------------
B ---------11-9---11/13----------9-11-11/13-14-11/13-11-------
G -8-10-12--------------12--8-10------------------------8h10-8
D ------------------------------------------------------------
A ------------------------------------------------------------
E ------------------------------------------------------------

Preciosa sangre...

...donde yo encontre la razon de vivir -8--9--8--6
                                       -----------
                                       -----------
                                       -----------
                                       -----------
                                       -----------

Jesus          Jesus
e ------------------------------
B -----9-8-----------------9-8--
G -7/8-----8-----------7/8-----8
D ----------------10-11---------
A ------------------------------
E ------------------------------

mi corazon te canta    mi corazon te canta
e---------------------------------------------
B---------------------------------------------
G------6/8--------6-----------6/8----------6--
E--------------------6-----------------------6
A---------------------------------------------
E---------------------------------------------

Jesus          Jesus
e ------------------------------
B -----9-8-----------------9-8--
G -7/8-----8-----------7/8-----8
D ----------------10-11---------
A ------------------------------
E ------------------------------

mi corazon te canta    mi corazon te canta
e----------------------------------------------
B----------------------------------------------
G------6/8--------6-----------6/8----------6---
D-------------------6------------------------6-
A----------------------------------------------
E----------------------------------------------

jesus
e --------------------------------------------------
B --9---11/13----------9-11-11/13-14-11/13-11-------
G ------------12--8-10------------------------8h10-8
D --------------------------------------------------
A --------------------------------------------------
E --------------------------------------------------


Preciosa sangre...

...donde yo encontre la razon de vivir -8--9--8--6
                                       -----------
                                       -----------
                                       -----------
                                       -----------
                                       -----------

Jesus          Jesus
e ------------------------------
B -----9-8-----------------9-8--
G -7/8-----8-----------7/8-----8
D ----------------10-11---------
A ------------------------------
E ------------------------------

mi corazon te canta    mi corazon te canta
e---------------------------------------------
B---------------------------------------------
G------6/8--------6-----------6/8----------6--
E--------------------6-----------------------6
A---------------------------------------------
E---------------------------------------------

Jesus          Jesus
e ------------------------------
B -----9-8-----------------9-8--
G -7/8-----8-----------7/8-----8
D ----------------10-11---------
A ------------------------------
E ------------------------------

mi corazon te canta    mi corazon te canta
e----------------------------------------------
B----------------------------------------------
G------6/8--------6-----------6/8----------6---
D-------------------6------------------------6-
A----------------------------------------------
E----------------------------------------------

Jesus          Jesus
e ------------------------------
B -----9-8-----------------9-8--
G -7/8-----8-----------7/8-----8
D ----------------10-11---------
A ------------------------------
E ------------------------------

mi corazon te canta    mi corazon te canta
e----------------------------------------------
B----------------------------------------------
G------6/8--------6-----------6/8----------6---
D-------------------6--------------------------
A----------------------------------------------
E----------------------------------------------

jesus
e---------------------------------------------------
B------------------------9-------9-11-11/14-13-11-9-
G---8--7--6--5--5-6-8--7----8-10--------------------
D---------------------------------------------------
A---------------------------------------------------
E---------------------------------------------------
Suggest correction
Give kudos to tab author, rate the tab!
1 2 3 4 5
comments
print report bad tab
guest
You may want to rate the tab now too:
select rating
Wanna post a correction for this tab? Suggest correction