Oops, an error
Loading. Please wait.

Mi Corazón Te Canta Tab

version 2
version 2

Whole song

26 views 1 this week
no commentswrite comment
1 2 3 4 5
3 more votes to show rating
add to favorites
launch autoscroll
font size
0
reset
how to read this tab
guitar tuner
×
Best way to learn
"Mi Corazón Te Canta"
Autoscroll
slow
fast
+/-
esc
set tempo
stop
bueno aqui esta la primera cancion que subo a la pagina,
espero que les ayude mucho,la cancion esta originalmente en Ab,
le agregue unos pequeños detalles que si oyen bien la cancion son
indispensables para que suene muy bien.
Pt:la unica manera de que la puedan tocar bien es con la ayuda de Dios.

Intro: (G# - Cm - C#sus2- C#m - C#sus2- C#m)x 2

E ----8-----8---9---8---9
B -9-----8---------------
G -----------------------

E -------------------------------------------------------------
B ---------11-9-11s13-8-------9-11-11s13-14-11s13-11-----------
G -------8---------------8-10----------------------------------
D -10-11---------------------------------------------13s15s13--
A -------------------------------------------------------------
E -------------------------------------------------------------

Estribillo:

G#            Cm  G#9              C#sus2
   Preciosa sangre   que mi vida cambio
C#m                        G#
  Mis pecados, mis culpas lavó
             B9b      C#sus2    D#sus2
 Ha quedado atrás el pasado sin Dios
 G#            Cm              C#sus2
   Fue en esa cruz  donde la historia cambió
         C#m                 Fm7
Donde mi vida  tomó otro sentido donde
        B9b    C#sus2   C#m   C#sus2-C#m
Yo encontré la razón de vivir

E ---8---9---8---6-------
B -----------------------
G -----------------------

Coro:


E ---------------------------------------------------------
B ----9-8h9p8------------9-8h9p8---------------------------
G --8---------8--6-6-6s8---------8--6s8-6---6s8-6----------
D ----------------------------------------6-------6--------
A ---------------------------------------------------------
E --------------------------------------------------------- x 2
        G#      Cm         C#sus2              C#m
  ///Jesús, Jesús, mí corazón te canta, mi corazón te canta ///
 G#
Jesus

E --------------------------------------------------------
B -s9-11s13-8------9-11-11s13-14-11s13--11-----------
G ------------8-10----------------------------------------
D -----------------------------------------13s15s13-
A --------------------------------------------------------
E --------------------------------------------------------


Estribillo:

G#            Cm  G#9              C#sus2
   Preciosa sangre   que mi vida cambio
C#m                        G#
  Mis pecados, mis culpas lavó
             B9b      C#sus2    D#sus2
 Ha quedado atrás el pasado sin Dios
 G#            Cm              C#sus2
   Fue en esa cruz  donde la historia cambió
         C#m                 Fm7
Donde mi vida  tomó otro sentido donde
        B9b    C#sus2   C#m   C#sus2-C#m
Yo encontré la razón de vivir

E ---8---9---8---6-------
B -----------------------
G -----------------------

Coro:


E ---------------------------------------------------------
B ----9-8h9p8------------9-8h9p8---------------------------
G --8---------8--6-6-6s8---------8--6s8-6---6s8-6----------
D ----------------------------------------6-------6--------
A ---------------------------------------------------------
E ---------------------------------------------------------

      G#      Cm         C#sus2              C#m
  ///Jesús, Jesús, mí corazón te canta, mi corazón te canta ///
 G#
Jesús

E------------------------------------------------------
B------------------------9-------9-11s14-13-11h13p11-9-
G---8--7--6--5--5-6-8--7----8-10-----------------------
D------------------------------------------------------
A------------------------------------------------------
E------------------------------------------------------


saludos a mi banda Kayros uncion poderosa son mis mejores amigos
y a Nelcy que la amo y que ojala nunca cambies tu forma de ser.
escribanme a mono4152@ si quieren mas tab y canciones cristianas
Suggest correction
Give kudos to tab author, rate the tab!
1 2 3 4 5
comments
print report bad tab
guest
You may want to rate the tab now too:
select rating
Wanna post a correction for this tab? Suggest correction