Oops, an error
Loading. Please wait.

Mi Entorno Tab

version 2
version 2

Whole song

32 views 1 this week
no commentswrite comment
1 2 3 4 5
3 more votes to show rating
add to favorites
launch autoscroll
font size
0
reset
how to read this tab
guitar tuner
×
Best way to learn
"Mi Entorno"
Autoscroll
slow
fast
+/-
esc
set tempo
stop
INTRO:

E ---------------------------------------
B ------------3-1-0----------------------
G ------0-2---------2-0--0-4(4)-0--------
D ----0-----0----------------4----4---2--
A ------------------------------------3--
E --0-----2-----3--------0---------------

E ---------------------------------------
B ------------3-1-0----------------------
G ------0-2---------2-0-4--0----2--------
D ----0-----0----------------0------4-0--
A ---------------------------------------
E --0-----2-----3-------0--------2-------


El arpegio de las estrofas va asi:

Primera Estrofa

  Mm7            D/F#    G      Mm7         Dadd4    C
  No se donde comienzas tu      No se donde termino yo

E -----------------------------------------------
B ----------------0----------0----------------1--
G -----0----2--------------0------0---------0----
D ---0---0----0-----------------4---4---2--2-----
A ------------------------------5-------3--------
E -0--------2-----3-------0----------------------

  Mm7            D/F#    G                  Dadd4
  Mi entorno se lleno de ti      Y mi interior

E --------------------------------------------
B ----------------0---------------------3-----
G ------0--2---2----------------0-0-------0---
D ----0------0--------------0-4-----4-------4-
A -------------------------5----------5-------
E --0------2------3---------------------------

  Mm7         D/F#    G      Mm7      Dadd4      C
  Y mi manera de pensar      Y mi manera de sentir

E -------------------------------------------
B ----------------0----------0---------------
G -----0----2--------------0------0----------
D ---0---0----0-----------------4---4---2----
A ------------------------------5-------3----
E -0--------2-----3-------0------------------

  Mm7             D/F#     G              Dadd4
  Cambiaron al crecer tu amor    Dentro de Mí

E --------------------------------------------
B ----------------0--------------3------------
G ------0--2---2---------------0---0----------
D ----0------0---------------4-------4--------
A -------------------------5------------------
E --0------2------3---------------------------


PRE-Coro

  Am7            C               D6  Dsus  D
  Y nada cambiaria quiero estar así

E ------------------------------2----3----2---
B ---1--------1----------------0-0----3-------
G ---0--------0--------------2-----2----2-----
D ---2--------2-------------0-----------------
A ---0--------3-------------------------------
E --------------------------------------------

  Am7            C                D2sus B7(sus)C2sus D/F#
  Muriendo cada día para verte en Mi

E ----------------------------0------------0------
B ---1--------1-------------3-3/5-3-3----3-3/5-3--
G ---0--------0------------2-----------0----------
D ---2--------2-----------0---------2----------0--
A ---0--------3-----------------------------------
E ------------------------------------------------

CORO

La 2 guitarra hace arpegios kiko marca acordes y adorna

  G            D              Em             C              G
  Llenas mi espacio llenas mi vida   Me iluminaste como el Sol

E -3--------2-------------0----------------------3-----
B -3--------3-------------0----------1-----------3-----
G -0--------2-------------0----------0-----------0-----
D -0--------0-------------2----------2-----------0-----
A -----------------------------------3-----------------
E -----------------------------------------------------

  G             D                Em             C           D
  Quiero que crezcas todos los días   Ser un reflejo de tu amor

E -3-5/7-5----------------------------------------0h2---2-
B ---------5--3h5p3h5-------------------1--------3----3---
G -------------------------4------------0------2----------
D -------4-----------------5------------2-----0-----------
A -------------------------7------------3-----------------
E --------------------------------------------------------

INTRO:

E ---------------------------------------
B ------------3-1-0----------------------
G ------0-2---------2-0--0-4(4)-0--------
D ----0-----0----------------4----4---2--
A ------------------------------------3--
E --0-----2-----3--------0---------------

E ---------------------------------------
B ------------3-1-0----------------------
G ------0-2---------2-0-4--0----2--------
D ----0-----0----------------0------4-0--
A ---------------------------------------
E --0-----2-----3-------0--------2-------


Segunda Estrofa

  Mm7           D/F#    G        Mm7        Dadd4       C
  Con el sonido de mi voz       El viaje emprenderé por ti

E --------------------------------------------
B ----------------0----------0----------------
G -----0----2--------------0------0-----------
D ---0---0----0-----------------4---4---2-----
A ------------------------------5-------3-----
E -0--------2-----3-------0-------------------

 Mm7           D/F#      G              Dadd4
 Mis pies me llevaran a donde   Quieras ir

E --------------------------------------------
B ----------------0---------------------3-----
G ------0--2---2----------------0-0-------0---
D ----0------0--------------0-4-----4-------4-
A -------------------------5----------5-------
E --0------2------3---------------------------

  Mm7        D/F#    G       Mm7       Dadd4    C
  Y mi manera de pensar      Y mi manera de sentir

E ----------------------------------------------------
B ----------------0----------0---------------3-1p0----
G -----0----2--------------0------0---------0------0--
D ---0---0----0-----------------4---4---2--2----------
A ------------------------------5-------3-------------
E -0--------2-----3------0----------------------------

  Mm7           D/F#    G                  Dadd4
  Hoy giran a tu alrededor       Rendido estoy

E --------------------------------------------
B ----------------0--------------3------------
G ------0--2---2---------------0---0----------
D ----0------0---------------4-------4--------
A -------------------------5------------------
E --0------2------3---------------------------

PRE-Coro

  Am7           C                D6  Dsus  D
  Y nada cambiaria quiero estar así

E ------------------------------2----3----2---
B ---1--------1----------------0-0----3-------
G ---0--------0--------------2-----2----2-----
D ---2--------2-------------0-----------------
A ---0--------3-------------------------------
E --------------------------------------------

  Am7            C                D2sus B7(sus)C2sus D/F#
  Muriendo cada día para verte en Mi

E ----------------------------0------------0------
B ---1--------1-------------3-3/5-3-3----3-3/5-3--
G ---0--------0------------2-----------0----------
D ---2--------2-----------0---------2----------0--
A ---0--------3-----------------------------------
E ------------------------------------------------


2 Veces el CORO

  G            D               Em             C             G
  Llenas mi espacio llenas mi vida   Me iluminaste como el Sol

E -3--------2-------------0----------------------3-----
B -3--------3-------------0----------1-----------3-----
G -0--------2-------------0----------0-----------0-----
D -0--------0-------------2----------2-----------0-----
A -----------------------------------3-----------------
E -----------------------------------------------------

  G             D               Em              C            D
  Quiero que crezcas todos los días   Ser un reflejo de tu amor


E -3-5/7-5----------------------------------------------------
B ---------5--3h5p3h5------------1-----3/5/3-1-0-----0--------
G ------------------------4------0---------------0-2---2-0----
D -------4----------------5------2-------------------------4--
A ------------------------7------3----------------------------
E ------------------------------------------------------------

  G           D               Em              C             G
  Llenas mi espacio llenas mi vida   Me iluminaste como el Sol
E -3-5/7-5---------------------------------------3--
B ---------5--3h5p3h5----------------1-----------3--
G -------------------------4---------0-----------0--
D -------4-----------------5---------2-----------0--
A -------------------------7---------3--------------
E --------------------------------------------------


  G             D               Em             C            D
  Quiero que crezcas todos los días   Ser un reflejo de tu amor


E -3-5/7-5---------------------------------------0h2---2--
B ---------3h5-3h5-3h5p3---------------1--------3---3-3---
G -----------------------------4-------0-------2-----2----
D -------4---------------------5-------2------0-----------
A -----------------------------7-------3------------------
E --------------------------------------------------------


Final

2 veces el INTRO para terminar

E ---------------------------------------
B ------------3-1-0----------------------
G ------0-2---------2-0--0-4(4)-0--------
D ----0-----0----------------4----4---2--
A ------------------------------------3--
E --0-----2-----3--------0---------------

E ---------------------------------------
B ------------3-1-0----------------------
G ------0-2---------2-0-4--0----2--------
D ----0-----0----------------0------4-0--
A ---------------------------------------
E --0-----2-----3-------0--------2-------


E ---------------------------------------
B ------------3-1-0----------------------
G ------0-2---------2-0--0-4(4)-0--------
D ----0-----0----------------4----4---2--
A ------------------------------------3--
E --0-----2-----3--------0---------------

E -----------------------
B ------------3-1-0------
G ------0-2---------2-0--
D ----0-----0------------
A -----------------------
E --0-----2-----3--------

              F6               Em                Cadd9 D      G
  Llenas mi entorno, llenas mi vida    Me iluminaste como el Sol

E ------------------------------------------------3----
B ----------3--------------0-----------3----3-----3----
G ----------2--------------0-----------0----2----------
D ----------3--------------2-----------2----0----------
A -------------------------------------3----------2----
E ------------------------------------------------3----

Esta versión esta en sol (G) sin Capo-traste, la original es idéntica
solo que le ponen un capo-traste en el traste 1 y esta en La bemol (Ab).
Suggest correction
Give kudos to tab author, rate the tab!
1 2 3 4 5
comments
print report bad tab
guest
You may want to rate the tab now too:
select rating
Wanna post a correction for this tab? Suggest correction