Oops, an error
Loading. Please wait.

Mi Entorno Tab

version 3
version 3

Whole song

112 views 3 this week
no commentswrite comment
1 2 3 4 5
3 more votes to show rating
add to favorites
launch autoscroll
font size
0
reset
how to read this tab
guitar tuner
×
Best way to learn
"Mi Entorno"
Autoscroll
slow
fast
+/-
esc
set tempo
stop
Hola!!!!
Ps la Corregi, porque habían unos toques malos,
ahora se oye más similar a la rola ok...

Pongan el capo en 1er. traste
desde ahi cuenta la tablatura.

INTRO:
    Fm7   Eb/G      Ab          Fm7 Ebadd4 Db
e-|--------------------------------------------|
B-|-------------3--1---0------------0----------|
G-|-----0--2--------------2--0--0-------0------|
D-|---0-------0---------0--0--0------4----2----|
A-|-----------------------------------5-----3--|
E-|-0-------2--------3------------0------------|

    Fm7   Eb/G    Ab         Fm7        Ebadd4
e-|--------------------------------------------|
B-|-------------3--1---0--------0-----0--------|
G-|-----0--2--------------2--0-------0--2------|
D-|---0-------0---------0--0--0-----------4----|
A-|-------------------------------3---------5--|
E-|-0-------2--------3-------------------------|

ESTROFA 1:

   Fm7         Eb/G    Ab
No se donde comienzas tú
e-|-----------------------|
B-|------------------0----|
G-|------0--2-----2-------|
D-|---0--------0----------|
A-|-----------------------|
E-|-0--------2---------3--|

   Fm7      Ebadd4   Db
No se donde termino yo
e-|----------------------|
B-|-----0----------------|
G-|-------------0--------|
D-|---0---4-------2------|
A-|----------5-------3---|
E-|-0--------------------|

     Fm7         Eb/G   Ab
Mi entorno se lleno de ti
 e-|-----------------------|
 B-|------------------0----|
 G-|------0--2-----2-------|
 D-|---0--------0----------|
 A-|-----------------------|
 E-|-0--------2---------3--|

           Ebadd4
Y mi interior
e-|---------------------------|
B-|--------------------3------|
G-|-----------0--0-------0----|
D-|---------4------4-------4--|
A-|-------5----------5--------|
E-|---------------------------|

   Fm7      Eb/G   Ab
Y mi manera de pensar
e-|----------------------|
B-|-----------------0----|
G-|------0--2----2-------|
D-|---0--------0---------|
A-|----------------------|
E-|-0--------2--------3--|

   Fm7    Ebadd4   Db
Y mi manera de sentir
e-|--------------------|
B-|-----0--------------|
G-|-----------0--------|
D-|---0---4------2-----|
A-|---------5-------3--|
E-|-0------------------|

    Fm7        Eb/G    Ab
Cambiaron al crecer tu amor
 e-|----------------------|
 B-|-----------------0----|
 G-|------0--2----2-------|
 D-|---0--------0---------|
 A-|----------------------|
 E-|-0--------2--------3--|

          Ebadd4
Dentro de mi
e-|--------------------|
B-|-------------3------|
G-|-----------0---0----|
D-|---------4-------4--|
A-|-------5------------|
E-|--------------------|


PRE-CORO:

   Bbm7             Db
       Y nada cambiaría
e-|-0--------------------|
B-|-1---------------0h1--|
G-|-0---------------0----|
D-|-2---------------0h2--|
A-|-0---------------3----|
E-|----------------------|

               Eb6      Ebsus   Eb
Quiero estar así
        e-|---------2-----3-----2-|
        B-|-------0----0-----2----|
        G-|-----2-------2-----2---|
        D-|---0-------------------|
        A-|-----------------------|
        E-|-----------------------|

   Bbm7             Db
      Muriendo cada día
e-|-0--------------------|
B-|-1---------------0h1--|
G-|-0---------------0----|
D-|-2---------------0h2--|
A-|-0---------------3----|
E-|----------------------|

             Ebadd2  Bb7sus Dbadd2 Eb/G
Para verte en mí
          e-|-----0----------0--------|
          B-|-3----3--3-------------3-|
          G-|---2-----0--0----------2-|
          D-|-0-------2-------------0-|
          A-|---------0------3--------|
          E-|-----------------------2-|

CORO:

    Ab             Eb              Fm
       Llenas mi espacio llenas mi vida
e-|-3-------------2----------------0-------|
B-|----0--------------3----------------0---|
G-|--0---0----------2---2------------0---0-|
D-|---------------0------------------------|
A-|----------------------------------------|
E-|-3------------------------------0-------|

         Db            Ab
Me iluminaste como el sol
e-|----------0---------3-------|
B-|-----1------1-----------0---|
G-|-------0--------------0---0-|
D-|----------------------------|
A-|-----3----------------------|
E-|--------------------3-------|

             Eb                 Fm
Quiero que crezcas y todos los días
e-|---------2------------------0-------|
B-|-------------3------------------0---|
G-|-----------2---2--------------0---0-|
D-|---------0--------------------------|
A-|------------------------------------|
E-|----------------------------0-------|

          Db           Eb
Ser un reflejo de tu amor
e-|-----------0--------0h2-------2--|
B-|------1------1------------3------|
G-|--------0---------------2---2----|
D-|--------------------0------------|
A-|------3--------------------------|
E-|---------------------------------|

    Fm7   Eb/G      Ab          Fm7 Ebadd4 Db
e-|--------------------------------------------|
B-|-------------3--1---0------------0----------|
G-|-----0--2--------------2--0--0-------0------|
D-|---0-------0---------0--0--0------4----2----|
A-|-----------------------------------5-----3--|
E-|-0-------2--------3------------0------------|

    Fm7   Eb/G    Ab         Fm7        Ebadd4
e-|--------------------------------------------|
B-|-------------3--1---0--------0-----0--------|
G-|-----0--2--------------2--0-------0--2------|
D-|---0-------0---------0--0--0-----------4----|
A-|-------------------------------3---------5--|
E-|-0-------2--------3-------------------------|

ESTROFA 2:

     Fm7      Eb/G   Ab
Con el sonido de mi voz
e-|----------------------|
B-|-----------------0----|
G-|-----0--2-----2-------|
D-|---0-------0----------|
A-|----------------------|
E-|-0-------2---------3--|

    Fm7        Ebadd4    Db
El viaje emprenderé por ti
 e-|------------------------|
 B-|-----0------------------|
 G-|--------------0---------|
 D-|---0----4--------2------|
 A-|-----------5--------3---|
 E-|-0----------------------|
     Fm7         Eb/G   Ab
Mis pies te llevaran a donde
e-|------------------------|
B-|-------------------0----|
G-|------0--2------2-------|
D-|---0---------0----------|
A-|------------------------|
E-|-0---------2---------3--|

        Ebadd4
Quieras ir
e-|---------------------------|
B-|--------------------3------|
G-|-----------0--0-------0----|
D-|---------4------4-------4--|
A-|-------5----------5--------|
E-|---------------------------|

    Fm7        Eb/G   Ab
 Y todo lo que soy señor
e-|-----------------------|
B-|------------------0----|
G-|------0--2-----2-------|
D-|---0--------0----------|
A-|-----------------------|
E-|-0--------2---------3--|


     Fm7     Ebadd4  Db
Mis planes y mi corazón
e-|--------------------------------|
B-|-----0------------------3-1-----|
G-|-------------0--------0-----0---|
D-|---0---4-------2----2---------0-|
A-|----------5-------3-------------|
E-|-0------------------------------|


    Fm7        Eb/G  Ab
Hoy giran a tu alrededor
e-|-----------------------|
B-|------------------0----|
G-|------0--2-----2-------|
D-|---0--------0----------|
A-|-----------------------|
E-|-0--------2---------3--|

           Ebadd4
Rendido estoy
e-|--------------------|
B-|-------------3------|
G-|-----------0---0----|
D-|---------4-------4--|
A-|-------5------------|
E-|--------------------|


PRE-CORO:

   Bbm7
       Y nada cambiaría
e-|-0--------------------|
B-|-1---------------0h1--|
G-|-0---------------0----|
D-|-2---------------0h2--|
A-|-0---------------3----|
E-|----------------------|

               Eb6      Ebsus   Eb
Quiero estar así
        e-|---------2-----3-----2-|
        B-|-------0----0-----2----|
        G-|-----2-------2-----2---|
        D-|---0-------------------|
        A-|-----------------------|
        E-|-----------------------|

   Bbm7             Fm
      Muriendo cada día
e-|-0------------------|
B-|-1---------------0--|
G-|-0---------------0--|
D-|-2---------------2--|
A-|-0---------------2--|
E-|-----------------0--|

            Ebadd2/G  Bb7sus Dbadd2 Eb/G
Para verte en mí
          e-|-----0----------0--------|
          B-|-3----3--3-------------3-|
          G-|---2-----0--0----------2-|
          D-|---------2-------------0-|
          A-|---------0------3--------|
          E-|-2---------------------2-|


    Ab             Eb              Fm
       Llenas mi espacio llenas mi vida
e-|-3-------------2----------------0-------|
B-|----0--------------3----------------0---|
G-|--0---0----------2---2------------0---0-|
D-|---------------0------------------------|
A-|----------------------------------------|
E-|-3------------------------------0-------|

         Db            Ab
Me iluminaste como el sol
e-|----------0---------3-------|
B-|-----1------1-----------0---|
G-|-------0--------------0---0-|
D-|----------------------------|
A-|-----3----------------------|
E-|--------------------3-------|

             Eb                 Fm
Quiero que crezcas y todos los días
e-|---------2------------------0-------|
B-|-------------3------------------0---|
G-|-----------2---2--------------0---0-|
D-|---------0--------------------------|
A-|------------------------------------|
E-|----------------------------0-------|

          Db           Bb7sus  Db   Eb/G
Ser un reflejo de tu amor
e-|-----------0------------------------------|
B-|------1------1------3--1--0-----0---0-1-0-|
G-|--------0-----------0-------0--2--2-------|
D-|--------------------2-------------0-------|
A-|------3-------------0-------3-------------|
E-|----------------------------------2-------|

    Ab             Eb              Fm
       Llenas mi espacio llenas mi vida
e-|---------------2----------------0-------|
B-|--0----------------3----------------0---|
G-|--0--------------2---2------------0---0-|
D-|---------------0------------------------|
A-|----------------------------------------|
E-|--3-----------------------------0-------|

         Db            Ab
Me iluminaste como el sol
e-|----------0---------3-------|
B-|-----1------1-----------0---|
G-|-------0--------------0---0-|
D-|----------------------------|
A-|-----3----------------------|
E-|--------------------3-------|

             Eb                 Fm
Quiero que crezcas y todos los días
e-|---------2------------------0-------|
B-|-------------3------------------0---|
G-|-----------2---2--------------0---0-|
D-|---------0--------------------------|
A-|------------------------------------|
E-|----------------------------0-------|

          Db           Eb
Ser un reflejo de tu amor
e-|-----------0--------0h2------2--|
B-|------1------1------------3-----|
G-|--------0---------------2---2---|
D-|--------------------0-----------|
A-|------3-------------------------|
E-|--------------------------------|

    Fm7   Eb/G      Ab          Fm7 Ebadd4 Db
e-|--------------------------------------------|
B-|-------------3--1---0------------0----------|
G-|-----0--2--------------2--0--0-------0------|
D-|---0-------0---------0--0--0------4----2----|
A-|-----------------------------------5-----3--|
E-|-0-------2--------3------------0------------|

    Fm7   Eb/G    Ab         Fm7        Ebadd4
e-|--------------------------------------------|
B-|-------------3--1---0--------0-----0--------|
G-|-----0--2--------------2--0-------0--2------|
D-|---0-------0---------0--0--0-----------4----|
A-|-------------------------------3---------5--|
E-|-0-------2--------3-------------------------|

    Fm7   Eb/G      Ab          Fm7 Ebadd4 Db
e-|--------------------------------------------|
B-|-------------3--1---0------------0----------|
G-|-----0--2--------------2--0--0-------0------|
D-|---0-------0---------0--0--0------4----2----|
A-|-----------------------------------5-----3--|
E-|-0-------2--------3------------0------------|

    Fm7   Eb/G    Ab
e-|------------------------------|
B-|-------------3--1---0---------|
G-|-----0--2--------------2--0---|
D-|---0-------0---------0--0--0--|
A-|------------------------------|
E-|-0-------2--------3-----------|


    Fm7   Eb/G    Ab
e-|-----------------------------|
B-|-------------3--1--0---------|
G-|-----0--2------------2--0----|
D-|---0-------0----------0--0---|
A-|-----------------------------|
E-|-0------2-------3------------|

         Db                 Bb7sus
Eres mi entorno    eres mi vida
e-|----------------------------|
B-|-------3----3------------3--|
G-|-------0---0-------------0--|
D-|-------------------------2--|
A-|-------3-----------------0--|
E-|----------------------------|

        Fm7     Eb/G   Ab
Me iluminaste como el sol
e-|-----------------------|
B-|--------0--------------|
G-|-----0-------2--0---0--|
D-|--------------------0--|
A-|-----------------------|
E-|-----0-------2---------|

ACORDES:

               Fm7

      1    2    3    4    5
e-| |-||-|----|----|----|----|
B-| |-||-|----|----|----|----|
G-| |-||-|----|----|----|----|
D-| |-||-|----|----|----|----|
A-| |-||-|----|-
Suggest correction
Give kudos to tab author, rate the tab!
1 2 3 4 5
comments
print report bad tab
guest
You may want to rate the tab now too:
select rating
Wanna post a correction for this tab? Suggest correction