Oops, an error
Loading. Please wait.

Mi Herencia Tab

104 views 3 this week
no commentswrite comment
1 2 3 4 5
3 more votes to show rating
add to favorites
launch autoscroll
font size
0
reset
how to read this tab
guitar tuner
Autoscroll
slow
fast
+/-
esc
set tempo
stop
Help us to improve Ultimate-Guitar.com Take our survey!
×
Este es el solo de la canción "Mi herencia",
compuesto por Kiko Cibrian. La guitarra está afinada en Eb,
así como en toda la canción.

eb|----------------------------------------------------------------------
Bb|----------------------------------------------------------------------
Gb|--------4-3h4--5------7----------------------7/9/7--5------7----------
Db|-----5--5-4h5-----5/7----7/5---5h7p5------5--7/9/7-----5/7----7/5-----
Ab|-5h7-------------------------7--------5h7-------------------------7-5-
Eb|----------------------------------------------------------------------

----------------------------------7-8-7-9----------7---------------------
----------------------------------8-8-8-10h11p10/8-8-9/10-7/9------------
----------------7h9p7-9/12--9/12--7-7-7-9----------7-----------7/9/7-----
-7---5--5/7h8h9-------------9/12---------------------9/10-8/9--5/7/5-----
---5---------------------------------------------------------------------
-------------------------------------------------------------------------

------7-8-7-8/10------7-8-7-10/12-12/10-----------------------------------
--8-8-------------8-8--------------------8/10--8--------------------------
------4-5-4-5/7-------4-5-4--7/9---9/7----------------5-4-----------------
--5-5-------------5-5--------------------5/8---5-----5----5-----7p6p5---5-
--------------------------------------------------3h5-------7-5------7p5--
--------------------------------------------------------------------------

-------------------------------------------------------------------------|
----------------8-10-12-10---8/10/8--------------------------------------|
----------7-9-7--------------7/ 9/7--------------12--------12------------|
--7p5-7/9-----------------------------7-9-10-11-----11-10-----11-7/9-----|
-------------------------------------------------------------------------|
-------------------------------------------------------------------------|


Eso es todo. Que les sea de utilidad.
Bendiciones para todos desde Chile.
Suggest correction
Give kudos to tab author, rate the tab!
1 2 3 4 5
comments
print report bad tab
guest
You may want to rate the tab now too:
select rating
Wanna post a correction for this tab? Suggest correction