Oops, an error
Loading. Please wait.

Mi Hermosa Esposa Tab

59 views 3 this week
no commentswrite comment
1 2 3 4 5
3 more votes to show rating
add to favorites
launch autoscroll
font size
0
reset
how to read this tab
guitar tuner
×
Best way to learn
"Mi Hermosa Esposa"
Autoscroll
slow
fast
+/-
esc
set tempo
stop
Intro.... A-D-F#m-D x2 GUITARRA 2


  e----------9-9------------------------9-9--12---9-----------
  B---10--12------12-12-10-10----10--12--------------10-------
  G-----------------------------------------------------------

  e----------9-9--------------------------------
  B---10--12------12-12-10-10---10-12-----------
  G------------------------------------11-------

  e----------9-9------------------------9-9--12---9-----------
  B---10--12------12-12-10-10----10--12--------------10-------
  G-----------------------------------------------------------

  e----------9-9--------------------------------
  B---10--12------12-12-10-10---10-12-----------
  G------------------------------------11-------


A                  D     F#m    D
 No me puedo imaginar mi vida, sin ti
A                  D      F#m
 no me puedo imaginar mis horas
           D             E
 sin tu silueta en mi memoria
               D              E
 te haz vuelto parte de mi historia

A                  D      F#m       D
 No me puedo imaginar los años que vendrán,
A                  D      F#m
 no los puedo imaginar si tu no estas
          D            E
 sin tu mirada y tu sonrisa
         D           E
 mi vida no seria la misma
C#m            D                E
  contigo me siento que puedo llegar
C#m               D           E
  tan alto y tan lejos como superman
 A               D             E
  contigo yo me siento como un héroe
 A                   D        E
  tu amor es mi energía mi motor
F#m            C#m             D
  y mi mayor hazaña es conquistarte
          F#m
  darte a ti
                C#m
  mi amor por siempre
          D          E
  y proteger tu corazón
 A               D             E
  contigo yo me siento como un héroe
 A                   D        E
  tu amor es mi energía mi motor
F#m            C#m             D
  y mi mayor hazaña es conquistarte
          F#m
  darte a ti
                C#m
  mi amor por siempre
          D          E
  y proteger tu corazón


bueno ahora se repite igual que lo anterior
gracias
mi correo es zato648992@
Suggest correction
Give kudos to tab author, rate the tab!
1 2 3 4 5
comments
print report bad tab
guest
You may want to rate the tab now too:
select rating
Wanna post a correction for this tab? Suggest correction