Oops, an error
Loading. Please wait.

Mi Universo Tab

version 2
version 2

Whole song

155 views 1 this week
1 commentread comment
1 2 3 4 5
2 more votes to show rating
add to favorites
launch autoscroll
font size
0
reset
how to read this tab
guitar tuner
×
Best way to learn
"Mi Universo"
Autoscroll
slow
fast
+/-
esc
set tempo
stop
_________________________________________________________________________
Este es el punteo con el rasgueo tiene un pocodeambos. Tienen que ser
Pasientes que esto no se logra de la noche a la mañana.
__________________________________________________________________________
Instrucciones:
Donde pongo (*) Quire decir que ahi tienen que tocar las tres cuerdas que
especifico con un(-); en la ultima parte para terminar se tocan la
5,4 y 3 cuerda, y a la tercera se toca la 4,3 y 2 para terminar.
Despues que hacen los 2 primeros(*)que ahi en el parrafo Golpean las
cuerdas con la muñeca y continuan con el ultimo(*).
Creo que esta bien esplicado como para que les sea facil,espero que les
guste y que lo utilicen para la Obra de Dios!!
_________________________________________________________________________

En la cancion e incluido el acorde (C9) q es como un (G)
NO STOY SEGURO SI ES "C9" PERO AQUILES VA LA POSICION:

                       ."-=C9=-".
                     (T1) (T2) (T3)
                   E)----/----/-(@-/=
                   B)----/----/-(@-/=
                   G)----/----/----/=
                   D)----/-(@-/----/=
                   A)----/----/-(@-/=
                   E)----/----/----/=
_________________________________________________________________________


!!MI UNIVERSO...
----------------------


-Esta es la Parte de Intro

  E)----------------------/-------------------------
  B)--------------0-------/-------------0-----------
  G)------0-2-2-----2---0-/-----0-2-2---------------
  D)----0-------0-----0---/---2-------0-------------
  A)----------------------/--3----------------------
  E)--3-------------------/-------------------------


  E)---------------------/--------------------------
  B)----------------0----/--0-1-3-1-(0/1)---3-------
  G)------0-2-2---2----0-/----------------2---2-----
  D)----0-------0----0---/--------------------------
  A)---------------------/--------------------------
  E)--3------------------/--------------------------


-1ºEstrofa:

    Que seas mi universo
    (Intermedio): E)---------------------
                  B)--------------0------
                  G)------0-2-2----2---0-
                  D)----0-------0----0---
                  A)---------------------
                  E)--3------------------

               *     *       *
    No quiero darte solo un rato de mi tiempo
                  E)---------------------
    (Las Tres     B)---------------------
     Cuerdas A   -G)--2--2--0------------
         la vez*)-D)--2--2--2------------
                 -A)--3--3--3------------
                  E)---------------------

    (Intermedio): E)---------------------
                  B)--------------0------
                  G)------0-2-2----2---0-
                  D)----0-------0----0---
                  A)---------------------
                  E)--3------------------


               *   *        *
    No quiero separarte un día solamente
                  E)---------------------
    (Las Tres    -B)--1--1--1------------
     Cuerdas A   -G)--0--0--0------------
         la vez*) D)---------------------
                 -A)--0--0--0------------
                  E)---------------------

    (Intermedio): E)---------------------
                  B)--------3------------
                  G)------0---0----------
                  D)----4----- --4-------
                  A)--5------------------
                  E)---------------------


    Que seas mi universo
    (Intermedio): E)---------------------
                  B)--------------0------
                  G)------0-2-2----2---0-
                  D)----0-------0----0---
                  A)---------------------
                  E)--3------------------


                *    *     *
    No quiero darte mis palabras como gotas
                  E)---------------------
    (Las Tres     B)---------------------
     Cuerdas A   -G)--2--2--0------------
         la vez*)-D)--2--2--2------------
                 -A)--3--3--3------------
                  E)---------------------

    (Intermedio): E)---------------------
                  B)--------------0------
                  G)------0-2-2----2---0-
                  D)----0-------0----0---
                  A)---------------------
                  E)--3------------------


                *       *    *
    Quiero un diluvio de alabanzas en mi boca
                  E)---------------------
    (Las Tres    -B)--1--1--1------------
     Cuerdas A   -G)--0--0--0------------
         la vez*) D)---------------------
                 -A)--0--0--0------------
                  E)---------------------

    (Intermedio): E)---------------------
                  B)--------3------------
                  G)------0---0----------
                  D)----4----- --4-------
                  A)--5------------------
                  E)---------------------


-"Coro":

  (Entrada): G - C9

                    G
    Que seas mi universo
    (Intermedio): E)---------------------
                  B)--------------0------
                  G)------0-2-2----2---0-
                  D)----0-------0----0---
                  A)---------------------
                  E)--3------------------

              C9                          G
    Que seas todo lo que siento y lo que pienso
    (Intermedio): E)---------------------
                  B)--------------0------
                  G)------0-2-2----2---0-
                  D)----0-------0----0---
                  A)---------------------
                  E)--3------------------

              C9                      Am
    Que seas el primer aliento en la mañana

                    D
    Y la luz en mi ventana
    (Intermedio): E)---------------------
                  B)--------3------------
                  G)------0---0----------
                  D)----4----- --4-------
                  A)--5------------------
                  E)---------------------

  (Entrada): C9 - G
                   G
    Que seas mi universo
    (Intermedio): E)---------------------
                  B)--------------0------
                  G)------0-2-2----2---0-
                  D)----0-------0----0---
                  A)---------------------
                  E)--3------------------

                  C9                   G
    Que encierres cada uno de mis pensamientos
    (Intermedio): E)---------------------
                  B)--------------0------
                  G)------0-2-2----2---0-
                  D)----0-------0----0---
                  A)---------------------
                  E)--3------------------

             C9                            Am
    Que tu presencia y tu poder sean mi alimento

                    D
    Oh Jesus es mi deseo
    (Intermedio): E)---------------------
                  B)--------3------------
                  G)------0---0----------
                  D)----4----- --4-------
                  A)--5------------------
                  E)---------------------

-2ºEstrofa:

    Que seas mi universo
    (Intermedio): E)---------------------
                  B)--------------0------
                  G)------0-2-2----2---0-
                  D)----0-------0----0---
                  A)---------------------
                  E)--3------------------

               *    *     *
    No quiero darte solo parte de mis años
                  E)---------------------
    (Las Tres     B)---------------------
     Cuerdas A   -G)--2--2--0------------
         la vez*)-D)--2--2--2------------
                 -A)--3--3--3------------
                  E)---------------------

    (Intermedio): E)---------------------
                  B)--------------0------
                  G)------0-2-2----2---0-
                  D)----0-------0----0---
                  A)---------------------
                  E)--3------------------

               *    *       *
    Te quiero dueño de mi tiempo y de mi espacio
                  E)---------------------
    (Las Tres    -B)--1--1--1------------
     Cuerdas A   -G)--0--0--0------------
         la vez*) D)---------------------
                 -A)--0--0--0------------
                  E)---------------------

    (Intermedio): E)---------------------
                  B)--------3------------
                  G)------0---0----------
                  D)----4----- --4-------
                  A)--5------------------
                  E)---------------------


    Que seas mi universo
    (Intermedio): E)---------------------
                  B)---------------------
                  G)------0-2-2---2-2--0-
                  D)----0-------0-----0--
                  A)---------------------
                  E)--3------------------

                 *     *     *
    No quiero hacer mi voluntad quiero agradarte
                  E)---------------------
    (Las Tres     B)---------------------
     Cuerdas A   -G)--2--2--0------------
         la vez*)-D)--2--2--2------------
                 -A)--3--3--3------------
                  E)---------------------

    (Intermedio): E)---------------------
                  B)--------------0------
                  G)------0-2-2----2---0-
                  D)----0-------0----0---
                  A)---------------------
                  E)--3------------------

             *     *         *
    y cada sueño que hay en mi quiero entregarte
                  E)---------------------
    (Las Tres    -B)--1--1--1------------
     Cuerdas A   -G)--0--0--0------------
         la vez*) D)---------------------
                 -A)--0--0--0------------
                  E)---------------------

    (Intermedio): E)---------------------
                  B)--------3------------
                  G)------0---0----------
                  D)----4----- --4-------
                  A)--5------------------
                  E)---------------------


   **Coro (bis)**


   Despues:
                                          --
    Que seas mi universo                     -
    (Intermedio): E)---------------------     -
                  B)--------------0------      -_ (Se Repite
                  G)------0-2-2----2---0-      -    4 veses)
                  D)----0-------0----0---     -
                  A)---------------------    -
                  E)--3------------------   -
                                          --


   Para Terminar:
                  _________________
                 !Cuerdas !Cuerdas !
                 !en 1ºy2º!en el 3º!
                 ! toques ! toque  !
                 !--------+--------!
                 !________!________E)-----------
    (Las Tres    !________!___2-___B)--------0--
     Cuerdas A   !___-3-__!___3-___G)--2--2--2--
         la vez) !___-4-__!___4-___D)--2--2--2--
                 !___-5-__!________A)--3--3-----
                 !________!________E)-----------


*Les Gusto. Es Justo Como se toca...
 Cuidenceme Mucho y que Dios los Bendiga!!
Suggest correction
Give kudos to tab author, rate the tab!
1 2 3 4 5
comments
print report bad tab
1 comment total.
0 reply
juansavila99 10 Apr 19, 2017 11:04 AM

perfecto para todo aquel que es apasionado para la guitarra y no tiene un maestro gracias.

guest
You may want to rate the tab now too:
select rating
Wanna post a correction for this tab? Suggest correction