Oops, an error
Loading. Please wait.

Mi Vida Sin Ti Tab

363 views 1 this week
no commentswrite comment
1 2 3 4 5
3 more votes to show rating
add to favorites
launch autoscroll
font size
0
reset
how to read this tab
guitar tuner
×
Best way to learn
"Mi Vida Sin Ti"
Autoscroll
slow
fast
+/-
esc
set tempo
stop
Antes que nada los acordes:

     C#m7   F#m(add4)   Aadd2/G   D2
E)   -0-      -0-        -0-      -0-
B)   -0-      -0-        -0-      -2-
G)   -6-      -2-        -2-      -3-
D)   -6-      -4         -2-      -0-
A)   -4-      -4-        -0-      -0-
E)   -0-      -0-        -3-

Estas notas y el requinto se tocan juntos
Hay que escuchar bien la rítmica de el requinto
Para que le den bien los tiempos.
Requinto e intro:

Aadd2/G D2, F#m(add4),D2

Requinto e intro:
los numero 10,12,14 etc, son en el traste que se va a pisar la cuerda.
       Aadd/G                      D2
Cuerdas
1------------------------------------------------12--14----
2-----10--12s----14----12---10----10-12s---14------------10-
3-----------------------------------------------------------
4-----------------------------------------------------------
5-----------------------------------------------------------
6-----------------------------------------------------------

      F#m(add4)                     D2
1--------------------------------------------------
2-----10--12s----14----12---10------10-9---12---------
3----------------------------------------------9s--11-
4-----------------------------------------------------
5-----------------------------------------------------
6-----------------------------------------------------


Aadd2/G                  C#m7     D2
   NO ME PUEDO IMAGINAR MI VIDA, SIN TI
Aadd2/G                    C#m7         D2        F#m(add4)
  NO ME PUEDO IMAGINAR MIS HORAS SIN TU SILUETA EN MI MEMORIA
              Bm             E
TE HAS VUELTO PARTE DE MI HISTORIA
Aadd2/G                  C#m7         D2
  NO ME PUEDO IMAGINAR LO AÑOS, QUE VENDRAN
Aadd2/G                     C#m7               D2       F#m(add4
  NO LOS PUEDO IMAGINAR SI TU NO ESTAS, SIN TU MIRADA Y TU SONRISA
        Bm          E
MI VIDA NO SERIA LA MISMA.
F#m(add4)           D2              E
   CONTIGO ME SIENTO QUE PUEDO LLEGAR
F#m(add4)          D2               E
   TAN ALTO Y TAN LEJOS COMO SUPERMAN


//
Aadd2/G         D2             Aadd2/G
  CONTIGO YO ME SIENTO COMO UN HEROE
Aadd2/G          D2          E
  TU AMOR ES ENERGIA A MI MOTOR
Bm           C#m7             D2               F#m(add)
  Y MI MAYOR ASAÑA ES CONQUISTARTE, Y DARTE A TI MI AMOR
      D2             F#m(add)        E
POR SIEMPRE Y PROTEGER TU CORAZON//

INTRO//


Espero le hayan entendido para dedicársela a alguien especial.
Cualquier duda, escríbanme..
Suggest correction
Give kudos to tab author, rate the tab!
1 2 3 4 5
comments
print report bad tab
guest
You may want to rate the tab now too:
select rating
Wanna post a correction for this tab? Suggest correction