Oops, an error
Loading. Please wait.

Nadie Se Lo Imaginó Tab

20 views 1 this week
no commentswrite comment
1 2 3 4 5
3 more votes to show rating
add to favorites
launch autoscroll
font size
0
reset
how to read this tab
guitar tuner
×
Best way to learn
"Nadie Se Lo Imaginó"
Autoscroll
slow
fast
+/-
esc
set tempo
stop
 La canción esta en D para eso hay q afinar la guitarra un tono abajo.

Intro:

|------------------------------------------------------------------|
|----------------0-------------------------------0-----------------|
|-1-------------------------------4--------------------------------|
|----------2--------------2----------------6--------------6--------|
|------2-------2------2-------2--------6-------6------6------------|
|-0--0---0---0---0--0---0---0-----4--4---4---4---4--4---4---4------|


|----------------4-------------------------------------------------|
|-2-----------------------2----------------------0-----------------|
|----------2----------4-----------1--------------------------------|
|------2-------2---------------------------2-----------------------|
|-0--0---0---0---0--0---0--------------2-------2-------------------|
|---------------------------------0--0---0---0---0-----------------|

Estrofa:

|-------------------------------------------------------------------|
|----------------0-------------------------------0------------------|
|-1-------------------------------4-----------------------4---------|
|----------2--------------2----------------6-----------------6------|
|------2-------2------2-------2--------6-------6------6---------6---|
|-0--0---0---0---0--0---0---0-----4--4---4---4---4--4---4-4--4--4---|


|----------------4--------------------------------------------------|
|-2-----------------------2----------------------0------------------|
|----------2----------4-----------1---------------------------------|
|------2-------2---------------------------2------------------------|
|-0--0---0---0---0--0---0--------------2-------2--------------------|
|---------------------------------0--0---0---0---0------------------|


|-------------------------------------------------------------------|
|----------------0-------------------------------0------------------|
|-1-------------------------------4-----------------------4---------|
|----------2--------------2----------------6-----------------6------|
|------2-------2------2-------2--------6-------6------6---------6---|
|-0--0---0---0---0--0---0---0-----4--4---4---4---4--4---4-4--4--4---|


|----------------4-------------------------------7------------------|
|-2-----------------------2-----------------------------------------|
|----------2----------4-----------8---------------------------------|
|------2-------2---------------------------9------------------------|
|-0--0---0---0---0--0---0--------------9-------9--------------------|
|---------------------------------7--7---7---7---7------------------|

Pre-Coro:

|-0-----------------------0----------------------4------------------|
|----------------0----------------2------------------------2--------|
|----------6-------------------------------2----------4-------------|
|------6-------6------6----------------2-------2--------------------|
|-4--4---4---4---4--4---4---------0--0---0---0---0--0----0----------|
|-------------------------------------------------------------------|


|------------------------------------------------7------------------|
|----------------0--------------------------------------------------|
|-1-------------------------------8-------------------8-------------|
|----------2--------------2----------------9--------------7---------|
|------2-------2------2-------2--------9-------9--------------------|
|-0--0---0---0---0--0---0---0-----7--7---7---7---7--7---7-----------|


|-0-----------------------0----------------------4------------------|
|----------------0----------------2------------------------2--------|
|----------6-------------------------------2----------4-------------|
|------6-------6------6----------------2-------2--------------------|
|-4--4---4---4---4--4---4---------0--0---0---0---0--0----0----------|
|-------------------------------------------------------------------|


|------------------------------------------------7------------------|
|----------------0--------------------------------------------------|
|-1-------------------------------8---------------------------------|
|----------2--------------2----------------9------------------------|
|------2-------2------2-------2--------9-------9--------------------|
|-0--0---0---0---0--0---0---0-----7--7---7---7---7------------------|

Coro:

|---------------------------------0--------------0------------------|
|----------------0-------------------------4----------0---4---------|
|-2-----------------------------------------------------------------|
|----------4--------------4------------6-------6--------------------|
|------4-------4------4-----------4--4---4---4---4--4---4-----------|
|-2--2---2---2---2--2---2-------------------------------------------|


|------------------------------------------------7------------------|
|----------------0--------------------------------------------------|
|-1-------------------------------8-------------------8-------------|
|----------2--------------2----------------9--------------7---------|
|------2-------2------2-------2--------9-------9--------------------|
|-0--0---0---0---0--0---0---0-----7--7---7---7---7--7---7-----------|


|---------------------------------0--------------0------------------|
|----------------0-------------------------4----------0---4---------|
|-2-----------------------------------------------------------------|
|----------4--------------4------------6-------6--------------------|
|------4-------4------4-----------4--4---4---4---4--4---4-----------|
|-2--2---2---2---2--2---2-------------------------------------------|


|------------------------------------------------7------------------|
|----------------0--------------------------------------------------|
|-1-------------------------------8---------------------------------|
|----------2--------------2----------------9------------------------|
|------2-------2------2-------2--------9-------9--------------------|
|-0--0---0---0---0--0---0---0-----7--7---7---7---7------------------|


|-----------------4----------------------------------7--------------|
|--2------------------------2-------------------7-------7-----------|
|-----------2----------4---------8----------------------------------|
|-------2-------2-------------------------9-----9-------------------|
|--0--0---0---0---0--0----0-----------9-------9---------------------|
|--------------------------------7--7---7---7------7---7------------|

|-----------------4-------------------------------------------------|
|--2------------------------2-------------------7-------------------|
|-----------2----------4---------8----------------------------------|
|-------2-------2-------------------------9-----9-------------------|
|--0--0---0---0---0--0----0-----------9-------9---------------------|
|--------------------------------7--7---7---7-----------------------|

Estrofa:

|-------------------------------------------------------------------|
|----------------0-------------------------------0------------------|
|-1-------------------------------4---------------------------------|
|----------2--------------2----------------6--------------6---------|
|------2-------2------2-------2--------6-------6------6-------------|
|-0--0---0---0---0--0---0---0-----4--4---4---4---4--4---4---4-------|


|----------------4-------------------------------2p0----------------|
|-2-----------------------2-----------------------------------------|
|----------2----------4-----------1---------------------------------|
|------2-------2---------------------------2----------1----2----1---|
|-0--0---0---0---0--0---0--------------2-------2--------------------|
|---------------------------------0--0---0---0---0---------0--------|


|-------------------------------------------------------------------|
|----------------0-------------------------------0------------------|
|-1-------------------------------4---------------------------------|
|----------2--------------2----------------6--------------6---------|
|------2-------2------2-------2--------6-------6------6-------------|
|-0--0---0---0---0--0---0---0-----4--4---4---4---4--4---4---4-------|


|----------------4-------------------------7-----7------------------|
|-2-----------------------2-------------------------7---7-----------|
|----------2----------4-----------8---------------------8-----------|
|------2-------2----------------------------------------------------|
|-0--0---0---0---0--0---0--------------9-------9--------------------|
|---------------------------------7--7---7---7---7----7---7---------|


Se repite el Pre-Coro y Coro igual

Termina:

|------------------------------------------------------------------|
|----------------0-------------------------------0-----------------|
|-1-------------------------------4--------------------------------|
|----------2--------------2----------------6--------------6--------|
|------2-------2------2-------2--------6-------6------6------------|
|-0--0---0---0---0--0---0---0-----4--4---4---4---4--4---4---4------|


|----------------4-------------------------------------------------|
|-2-----------------------2----------------------0-----------------|
|----------2----------4-----------1--------------1-----------------|
|------2-------2-----------------------2---------2-----------------|
|-0--0---0---0---0--0---0------------------2-----2-----------------|
|---------------------------------0--0---0---0---0-----------------|
Suggest correction
Give kudos to tab author, rate the tab!
1 2 3 4 5
comments
print report bad tab
guest
You may want to rate the tab now too:
select rating
Wanna post a correction for this tab? Suggest correction