Oops, an error
Loading. Please wait.

No A Nosotros Tab

21 views 1 this week
no commentswrite comment
1 2 3 4 5
3 more votes to show rating
add to favorites
launch autoscroll
font size
0
reset
how to read this tab
guitar tuner
Autoscroll
slow
fast
+/-
esc
set tempo
stop
Help us to improve Ultimate-Guitar.com Take our survey!
×
This is the part that the Elect. Guitar plays on this song
NOTE: The "E" doesn't mean the chord, it means the timing
on the note.

Guit. Elec.

4/4

     W                   W                   W
E||-------------------|-------------------|-------------------|
B||-------------------|-------------------|-------------------|
G||-------------------|-------------------|-------------------|
D||-------------------|-------------------|-------------------|
A||-------------------|-------------------|-------------------|
E||-------------------|-------------------|-------------------|


                      INTRO
  W                   E.    S S E.  E.  S S E.
-------------------|--------5-L---------5-L-----|
-------------------|--2---------2---3-------3---|
-------------------|----------------------------|
-------------------|----------------------------|
-------------------|----------------------------|
-------------------|----------------------------|


  E.  S S E.  E.  S S E.     E.  S S E.  E.  S S E.
--0---7-L-0-------5-L-----|------5-L---------5-L-----|
--------------3-------3---|--2-------2---3-------3---|
--------------------------|--------------------------|
--------------------------|--------------------------|
--------------------------|--------------------------|
--------------------------|--------------------------|


                             VERSO
  E.  S S E.  E.  S S E.     H.           S S S S
--0---7-L-0-------5-L-----|-----------------------|
--------------3-------3---|-----------------------|
--------------------------|---------------1-2-1-2-|
--------------------------|-----------------------|
--------------------------|-----------------------|
--------------------------|-----------------------|

                             Es por ti         que

  S S S S H        Q       H.           S S S S
------------------------|-----------------------|
------------------------|-----------------------|
--1-2-1-2-1-------------|---------------2-1-----|
------------------------|-------------------2---|
------------------------|---------------------4-|
------------------------|-----------------------|

jumtos hoy estamos aqui    fue tu amor      que

  E  E  H        Q       H.           S S S S
----------------------|-----------------------|
----------------------|-----------------------|
----------------------|---------------1-2-1-2-|
-----2--L-------------|-----------------------|
--L-------------------|-----------------------|
----------------------|-----------------------|

 de la obscuridad me saco a una voz        ve-

  S S S S Q    H           W                   W
------------------------|-------------------|--0----------------|
---------------0--------|--L----------------|-------------------|
--1-2-1-2-1-------------|-------------------|-------------------|
------------------------|-------------------|-------------------|
------------------------|-------------------|-------------------|
------------------------|-------------------|-------------------|

 nimos hoy delante de ti    para darte el honor

                      CORO
  W                   E.   S S E.  E.  S S E.
--L----------------|-------5-L---------5-L-----|
-------------------|--2--------2---3-------3---|
-------------------|---------------------------|
-------------------|---------------------------|
-------------------|---------------------------|
-------------------|---------------------------|

          No a nosotros             oh Dios

  E.  S S E.  E.  S S E.     E.  S S E.  E.  S S E.
--0---7-L-0-------5-L-----|------5-L---------5-L-----|
--------------3-------3---|--2-------2---3-------3---|
--------------------------|--------------------------|
--------------------------|--------------------------|
--------------------------|--------------------------|
--------------------------|--------------------------|

          SI no A tu          nombre sea dada la glo-

  E.  S S E.  E.  S S E.     E.  S S E.  E.  S S E.
--0---7-L-0-------5-L-----|------5-L---------5-L-----|
--------------3-------3---|--2-------2---3-------3---|
--------------------------|--------------------------|
--------------------------|--------------------------|
--------------------------|--------------------------|
--------------------------|--------------------------|

  ria             no a nosotros              oh Dios

  E.  S S E.  E.  S S E.     E.  S S E.  E.  S S E.
--0---7-L-0-------5-L-----|------5-L---------5-L-----|
--------------3-------3---|--2-------2---3-------3---|
--------------------------|--------------------------|
--------------------------|--------------------------|
--------------------------|--------------------------|
--------------------------|--------------------------|

          SI no A tu          nombre sea dada la glo-

  E.  S S E.  E.  S S E.     E.  S S E.  E.  S S E.
--0---7-L-0-------5-L-----|------5-L---------5-L-----|
--------------3-------3---|--2-------2---3-------3---|
--------------------------|--------------------------|
--------------------------|--------------------------|
--------------------------|--------------------------|
--------------------------|--------------------------|

  ria             no a nosotros      oh Dios o oh no

  E.  S S E.  E.  S S E.     E.  S S E.  E.  S S E.
--0---7-L-0-------5-L-----|------5-L---------5-L-----|
--------------3-------3---|--2-------2---3-------3---|
--------------------------|--------------------------|
--------------------------|--------------------------|
--------------------------|--------------------------|
--------------------------|--------------------------|

          SI no A tu          nombre sea dada la glo-

                      VERSO
  W                   H.           S S S S    S S S S H        Q
--0----------------|-----------------------|------------------------|
-------------------|-----------------------|------------------------|
-------------------|---------------1-2-1-2-|--1-2-1-2-1-------------|
-------------------|-----------------------|------------------------|
-------------------|-----------------------|------------------------|
-------------------|-----------------------|------------------------|

 ria

  H        S S S S S S S S    W
---------------------------|-------------------|
-------------------------2-|--L----------------|
---------------1-2-1-------|-------------------|
-------------2-------2-----|-------------------|
-----------------------4---|-------------------|
---------------------------|-------------------|


  H.           S S S S    S S S S Q.     Q.
-----------------------|------------------------|
-----------------------|-----------------0------|
---------------1-2-1-2-|--1-2-1-2-1-------------|
-----------------------|------------------------|
-----------------------|------------------------|
-----------------------|------------------------|


  E.  S H.              E.  S E  E  E  S S S S E
--0------------------|--0--------0--L----0-0---0--|
------0-L------------|------0-L--------0-----0----|
---------------------|----------------------------|
---------------------|----------------------------|
---------------------|----------------------------|
---------------------|----------------------------|


                                CORO
  S S S S E  S S S S E  Q       E    E  E  E  E  E  E  E
----0-0---0----0-0---0--0----|----------------------------|
--0-----0----0-----0----2----|--2----2--2--2--3--3--3--3--|
-----------------------------|--2----2--2--2--2--2--2--2--|
-----------------------------|----------------------------|
-----------------------------|----------------------------|
-----------------------------|----------------------------|


  E  E  E  E  E  E  E  E     E  E  E  E  E  E  E  E
--0--0--0--0--------------|--------------------------|
--0--0--0--0--3--3--3--3--|--2--2--2--2--3--3--3--3--|
--------------2--2--2--2--|--2--2--2--2--2--2--2--2--|
--------------------------|--------------------------|
--------------------------|--------------------------|
--------------------------|--------------------------|


  E  E  E  E  E  E  E  E     E  E  E  E  E  E  E  E
--0--0--0--0--------------|--------------------------|
--0--0--0--0--3--3--3--3--|--2--2--2--2--3--3--3--3--|
--------------2--2--2--2--|--2--2--2--2--2--2--2--2--|
--------------------------|--------------------------|
--------------------------|--------------------------|
--------------------------|--------------------------|


  E  E  E  E  E  E  E  E     E  E  E  E  E  E  E  E
--0--0--0--0--------------|--------------------------|
--0--0--0--0--3--3--3--3--|--2--2--2--2--3--3--3--3--|
--------------2--2--2--2--|--2--2--2--2--2--2--2--2--|
--------------------------|--------------------------|
--------------------------|--------------------------|
--------------------------|--------------------------|


  E  E  E  E  E  E  E  E     E  E  E  E  E  E  E  E
--0--0--0--0--------------|--------------------------|
--0--0--0--0--3--3--3--3--|--2--2--2--2--3--3--3--3--|
--------------2--2--2--2--|--2--2--2--2--2--2--2--2--|
--------------------------|--------------------------|
--------------------------|--------------------------|
--------------------------|--------------------------|


  E  E  E  E  E  E  E  E     E  E  E  E  E  E  E  E
--0--0--0--0--------------|--------------------------|
--0--0--0--0--3--3--3--3--|--2--2--2--2--3--3--3--3--|
--------------2--2--2--2--|--2--2--2--2--2--2--2--2--|
--------------------------|--------------------------|
--------------------------|--------------------------|
--------------------------|--------------------------|


  E  E  E  E  E  E  E  E     E  E  E  E  E  E  E  E
--0--0--0--0--------------|--------------------------|
--0--0--0--0--3--3--3--3--|--2--2--2--2--3--3--3--3--|
--------------2--2--2--2--|--2--2--2--2--2--2--2--2--|
--------------------------|--------------------------|
--------------------------|--------------------------|
--------------------------|--------------------------|


  E  E  E  E  E  E  E  E     E  E  E  E  E  E  E  E
--0--0--0--0--------------|--------------------------|
--0--0--0--0--3--3--3--3--|--2--2--2--2--3--3--3--3--|
--------------2--2--2--2--|--2--2--2--2--2--2--2--2--|
--------------------------|--------------------------|
--------------------------|--------------------------|
--------------------------|--------------------------|


  E  E  E  E  E  E  E  E     E  E  E  E  E  E  E  E
--0--0--0--0--------------|--------------------------|
--0--0--0--0--3--3--3--3--|--2--2--2--2--3--3--3--3--|
--------------2--2--2--2--|--2--2--2--2--2--2--2--2--|
--------------------------|--------------------------|
--------------------------|--------------------------|
--------------------------|--------------------------|


  E  E  E  E  E  E  E  E     E  E  E  E  E  E  E  E
--0--0--0--0--------------|--------------------------|
--0--0--0--0--3--3--3--3--|--2--2--2--2--3--3--3--3--|
--------------2--2--2--2--|--2--2--2--2--2--2--2--2--|
--------------------------|--------------------------|
--------------------------|--------------------------|
--------------------------|--------------------------|


                             PUENTE
  E  E  E  E  E  E  E  E     W                   W
--0--0--0--0--0--0--0--0--|-------------------|-------------------|
--0--0--0--0--0--0--0--0--|-------------------|-------------------|
--------------------------|-------------------|-------------------|
--------------------------|-------------------|-------------------|
--------------------------|-------------------|-------------------|
--------------------------|-------------------|-------------------|


  W                   W                   W
-------------------|-------------------|-------------------|
-------------------|-------------------|-------------------|
-------------------|-------------------|-------------------|
-------------------|-------------------|-------------------|
-------------------|-------------------|-------------------|
-------------------|-------------------|-------------------|


                              CORO
  E  E  E  E  E  E  Q         E.   S S E.  E.  S S E.
--0--0--0--0--0--0-------||--------5-L---------5-L-----|
--0--0--0--0--0--0--3----||---2--------2---3-------3---|
--------------------2----||*---------------------------|
-------------------------||*---------------------------|
-------------------------||----------------------------|
-------------------------||----------------------------|


  E.  S S E.  E.  S S E.     E.  S S E.  E.  S S E.
--0---7-L-0-------5-L-----|------5-L---------5-L-----|
--------------3-------3---|--2-------2---3-------3---|
--------------------------|--------------------------|
--------------------------|--------------------------|
--------------------------|--------------------------|
--------------------------|--------------------------|


  E.  S S E.  E.  S S E.     E.  S S E.  E.  S S E.
--0---7-L-0-------5-L-----|------5-L---------5-L-----|
--------------3-------3---|--2-------2---3-------3---|
--------------------------|--------------------------|
--------------------------|--------------------------|
--------------------------|--------------------------|
--------------------------|--------------------------|


  E.  S S E.  E.  S S E.     E.  S S E.  E.  S S E.
--0---7-L-0-------5-L-----|------5-L---------5-L-----|
--------------3-------3---|--2-------2---3-------3---|
--------------------------|--------------------------|
--------------------------|--------------------------|
--------------------------|--------------------------|
--------------------------|--------------------------|


  E.  S S E.  E.  S S E.     E.  S S E.  E.  S S E.
--0---7-L-0-------5-L-----|------5-L---------5-L-----|
--------------3-------3---|--2-------2---3-------3---|
--------------------------|--------------------------|
--------------------------|--------------------------|
--------------------------|--------------------------|
--------------------------|--------------------------|


  E.  S S E.  E.  S S E.     E.  S S E.  E.  S S E.
--0---7-L-0-------5-L-----|------5-L---------5-L-----|
--------------3-------3---|--2-------2---3-------3---|
--------------------------|--------------------------|
--------------------------|--------------------------|
--------------------------|--------------------------|
--------------------------|--------------------------|


  E.  S S E.  E.  S S E.       E.  S S E.  E.  S S E.
--0---7-L-0-------5-L------||------5-L---------5-L-----|
--------------3-------3----||--2-------2---3-------3---|
--------------------------*||--------------------------|
--------------------------*||--------------------------|
---------------------------||--------------------------|
---------------------------||--------------------------|


  E.  S S E.  E.  S S E.     E.  S S E.  E.  S S E.
--0---7-L-0-------5-L-----|------5-L---------5-L-----|
--------------3-------3---|--2-------2---3-------3---|
--------------------------|--------------------------|
--------------------------|--------------------------|
--------------------------|--------------------------|
--------------------------|--------------------------|


  E.  S S E.  E.  S S E.     W                   W
--0---7-L-0-------5-L-----|-------------------|-------------------||
--------------3-------3---|-------------------|-------------------||
--------------------------|-------------------|-------------------||
--------------------------|-------------------|-------------------||
--------------------------|-------------------|-------------------||
--------------------------|-------------------|-------------------||


Duration Legend
---------------
W - whole
H - half
Q - quarter
E - 8th
S - 16th
T - 32nd
X - 64th
. - note dotted
|-n-|  - n-tuplets


Tablature Legend
----------------
L - tied note
x - dead note
g - grace note
(n) - ghost note
> - accentuded note
NH - natural harmonic
AH - artificial harmonic
TH - tapped harmonic
SH - semi harmonic
PH - pitch harmonic
h - hammer on
p - pull off
b - bend
br - bendRelease
pb - preBend
pbr - preBendRelease
brb - bendReleaseBend
n/ - tremolo bar dip
n - tremolo bar dive
-/n - tremolo bar Release up
/n - tremolo bar inverted dip
/n - tremolo bar return
-n - tremolo bar Release down
S - shift slide
s - legato slide
/ -  slide into from below or out of upwards
 -  slide into from above or out of downwards
~ - vibrato
W - wide vibrato
tr - trill
TP - tremolo picking
T - tapping
S - slap
P - pop
< - fade in
^ - brush up
v - brush down
Suggest correction
Give kudos to tab author, rate the tab!
1 2 3 4 5
comments
print report bad tab
guest
You may want to rate the tab now too:
select rating
Wanna post a correction for this tab? Suggest correction