Oops, an error
Loading. Please wait.

No Es Como Yo Tab

version 2
version 2

Whole song

73 views 1 this week
no commentswrite comment
1 2 3 4 5
2 more votes to show rating
add to favorites
launch autoscroll
font size
0
reset
how to read this tab
guitar tuner
×
Best way to learn
"No Es Como Yo"
Autoscroll
slow
fast
+/-
esc
set tempo
stop
Intro
E |----------------------------------------------------|
a |----------------------------------------------------|
d |----------------------------------------------------|
g |----------------------------------------------------|
b |----5---------------------------5s7-----------------|
e |------5-4-5-----7-7-5-5t4-4-4-5---------------------|

E |----------------------------------------------------|
a |----------------------------------------------------|
d |----------------------------------------------------|
g |----------------------------------------------------|
b |--------------------5s7----7s5-5-5---5-3s5-3p2h3----|
e |----7-7-5-5t4-4-4-5----------------5----------------|

E |----------------------------------------------------|
a |----------------------------------------------------|
d |----------------------------------------------------|
g |---6-4t6-4-2-2s4------------------------------------|
b |----------------------------------------------------|
e |----------------------------------------------------|


Saludos a mi gente linda de Costa Rica y a todos los "CHO" de la
Comunidad Cristiana Reconciliación!!!
Suggest correction
Give kudos to tab author, rate the tab!
1 2 3 4 5
comments
print report bad tab
guest
You may want to rate the tab now too:
select rating
Wanna post a correction for this tab? Suggest correction