Oops, an error
Loading. Please wait.

No Es Como Yo Tab

version 3
version 3

Whole song

155 views 1 this week
no commentswrite comment
1 2 3 4 5
3 more votes to show rating
add to favorites
×
Save as Personal and add changes to this tab that will be seen only by you. Learn more ›
×
You can save this tab as Personal to edit and correct it or add notes. All changes will be seen only by you. Learn more »
save as personal
new!
launch autoscroll
font size
0
reset
how to read this tab
guitar tuner
Autoscroll
slow
fast
+/-
esc
set tempo
stop
A mi gusto una de las mejores canciones que
Hay, ponle atención a la letra y medita un
Rato en lo que JESUS hizo por ti.
Escucha bien los tiempos y entradas de cada
Guitarra para que no te confundas.


Intro

Guit. I

E-----------------------------------------
B----10-9-10-12-12p10-9h10-9-9-10---------
G--9------------------------------9/11----
D-----------------------------------------

E-----------------------------------------
B--12-12p10-9h10-9-9-10-------------------
G-----------------------9/11-9h11/7/9-----
D-----------------------------------------

E-----------------------------------------
B-----10----------------------------------
G--9-9----9-7/9-7/6/7-6-4h6p4-2-2/4-------
D-----------------------------------------

Guit. II

   A(add2)  E/G#      F#m7(add4) E
E-----------------------------------------
B--------2---------5--------0----------0--
G------4---------4--------2----------1----
D----2---------2--------2----------2------
A--0--------------------------------------
E------------4--------2----------0--------

   D        C#m7       Bm7       A/C#
E--------2--------------------------------
B------3----------5----------3----------2-
G----2----------4----------2----------2---
D--0----------6----------0----------2-----
A-----------4----------2----------4-------
E-----------------------------------------

   Esus4          E
E----------0------------------------------
B--------0---0----------------------------
G------2-------2--1-----------------------
D----2------------------------------------
A-----------------------------------------
E--0--------------------------------------

Verso I
              A(add2)          E/G#
E----------------------------------------
B-------------------2----------------5---
G-----------------4----------------4-----
D---------------2----------------2-------
A-------------0--------------------------
E------------------------------4---------
  NO ES COMO YO    AUNQUE SE HAYA HECHO
         F#m7(add4)    E
E----------0------------------------------
B--------0-------------0------------------
G------2-------------1--------------------
D----2-------------2----------------------
A-----------------------------------------
E--2-------------0------------------------
   HOMBRE, Y LE LLAME POR SU

    D                      Bm7
E---------2-2-0h2p0-----------------------
B-------3-----------3---------------------
G-----2---------------2----------3--------
D---0--------------------------2----------
A----------------------------0------------
E--------------------------2--------------
   NOMBRE

         Esus4          E
E----------------0-----------------------
B--------------0---0---------------------
G------------2-------2--1----------------
D----------2------------2----------------
A-----------------------2----------------
E--------0-------------------------------
   NO ES COMO YO


              A(add2)          E/G#
E----------------------------------------
B-------------------2----------------5---
G-----------------4----------------4-----
D---------------2----------------2-------
A-------------0--------------------------
E------------------------------4---------
  NO ES COMO YO     AUNQUE EN TODO FUE


         F#m7(add4)    E
E------------0------------------------------
B----------0-------------0------------------
G--------2-------------1--------------------
D------2-------------2----------------------
A-----------------------------------------
E----2-------------0------------------------
 TENTADO    EL ES LIMPIO SIN

    D                      Bm7
E---------2-2-0h2p0-----------------------
B-------3-----------3---------------------
G-----2---------------2----------3--------
D---0--------------------------2----------
A----------------------------0------------
E--------------------------2--------------
 PECADO


           E              E/D
E----------0-----0-----0--0-----0----0-
B------------0-----0--------0-----0----
G--------------1-----1--------1-----1--
D-------------------------0------------
A--------------------------------------
E----------O---------------------------
NO ES COMO YO

   C#sus4    C#m7     Fº7
E-------------------------------------
B--7-----7---5-----5--1----1----------
G----4---------4--------1-------------
D------6---------6--------3-----------
A--4---------4------------------------
E---------------------3---------------
             LA     PUREZA Y

   C#/F    F#m         D/F#
E-------------------------------------
B--2----2--2-----2------3-----3-------
G----1-------2-----2------2-----2-----
D------3-------4-----4------0------0--
A-------------------------------------
E--1-------2------------2-------------
   SANTI---DAD SON SU COLOR DE PIEL

  E7sus4       E
E-------5-5-7/-4----------------------
B-----5-------------------------------
G---7-----6-7/-4----------------------
D-7-----------------------------------
A-------------------------------------
E-------------------------------------

Coro
            A(add2)    E/G#
E-------------------0----------------
B-----------------2--------5---------
G---------------4--------4-----------
D-------------2--------2-------------
A-----------0------------------------
E--------------------4---------------
NO ES COMO YO  EL ES SANTO Y ES

     F#m7(add4)  C#m7
E------------0---------4--------------
B----------0---------5----------------
G--------2---------4------------------
D------2------------------------------
A----------------4--------------------
E----2--------------------------------
        PERFECTO  ES SUBLIME Y ES
   D
Suggest correction
Give kudos to tab author, rate the tab!
1 2 3 4 5
comments
print report bad tab
guest
Wanna post a correction for this tab? Suggest correction