Oops, an error
Loading. Please wait.

No Es Como Yo Tab

version 4
version 4

Whole song

49 views 1 this week
no commentswrite comment
1 2 3 4 5
2 more votes to show rating
add to favorites
launch autoscroll
font size
0
reset
how to read this tab
guitar tuner
Autoscroll
slow
fast
+/-
esc
set tempo
stop
Esta canción muy linda la saque con la ayuda del espíritu santo.
Quiero dedicársela a mis amigos del ministerio NUEVA GENERACION
de la iglesia cristiana
cuadrangular los cedros y al grupo el corbán de esta
iglesia: cesar, frank, dina, Alexandra, judy, Elizabeth
y especialmente a alguien que le encanta esta canción a deivy.
Espero que les guste. Bendiciones a todos.


Intro :
e|------------------------------------------------|
B|----10-9-10----12~-12~-10---9h10---9-9-10-------|
G|--9---------------------------------------9h11--|
D|------------------------------------------------|
A|------------------------------------------------|
E|------------------------------------------------|

e|----------------------------------------------------------|
b|-----12~-12~-10---9h10---9-9-10------------------10-------|
G|---------------------------------9h11-97-9-9-9-----9-7h9-|
D|----------------------------------------------------------|
A|----------------------------------------------------------|
E|----------------------------------------------------------|

E|------------------------------------------|
B|------------------------------------------|
G|--7-6-7-7-6h7-6---------------------------|
D|-----------------7-7/9--------------------|
A|------------------------------------------|
E|------------------------------------------|


              A          E/Gm           F#m
1)No es como yo? aunque se allá hecho hombre
        E            D9               E
 y le llame por su nombre no es como yo
            A            E/Gm          F#m
No es como yo? aunque en todo fue tentado el
       E             D9            E  E7
 es limpio y sin pecado no es como yo
C#                 F#m            D     E (B7-F#5-E)
  La pureza y santidad son su color de piel?

Coro:
            A         Gm           F#m
No es como yo el es santo y es perfecto
        E          D4  Bm             E      (F#m-E)
Es sublime y es eterno   no  hay compEración
            A           Gm           F#m
No es como yo el trasciende lo que existe y
     E           D4  Bm            E         (B7-F#5-E)
de majestad se viste   No hay comparación


1)no es como yo..Aunque se allá hecho carne y
 mi hermano el se llame no es como yo
No es como yo en el cielo esta su trono su poder
 lo llena todo no es como yo la creación toda
rodilla doblara a sus pies

Coro:

No es como yo el es santo y es perfecto
Es sublime y es eterno no no hay comparación
No es como yo el trasciende lo que existe y
de majestad se viste No hay comparación

Solo:

e|-------------------------------------------|
B|--5h7-7-7-5-4h5-4-5------------------------|
G|--------------------7h9-9-9-7-6h7-6-7------|
D|-------------------------------------------|
A|-------------------------------------------|
E|-------------------------------------------|


e|------------------------------------------|
B|------------------------------------------|
G|--7/9-11-6--------------6h7-6-------------|
D|-----------9-7-9-6-6h7----------9-7-7-----|
A|------------------------------------------|
E|------------------------------------------|


e|----------------------------------------|
B|----------------------------------------|
G|----------6h7-6-------------------------|
D|--9/11-9--------------------------------|
A|----------------------------------------|
E|----------------------------------------|

Coro:

No es como yo el es santo y es perfecto
Es sublime y es eterno no no hay comparación
No es como yo el trasciende lo que existe y
de majestad se viste No hay comparación


FINAL:


e|----------------------------------------------------------|
b|-----12~-12~-10---9h10---9-9-10------------------10-------|
G|---------------------------------9h11-97-9-9-9-----9-7h9-|
D|----------------------------------------------------------|
A|----------------------------------------------------------|
E|----------------------------------------------------------|

e|-----------------------------|
B|-----------------------------|
G|--7-6-7---6------------------|
D|-------------9-7-9-6-6h7-----|
A|-----------------------------|
E|-----------------------------|


DIEU TE BÉNISSE!!!!
Suggest correction
Give kudos to tab author, rate the tab!
1 2 3 4 5
comments
print report bad tab
guest
You may want to rate the tab now too:
select rating
Wanna post a correction for this tab? Suggest correction