Oops, an error
Loading. Please wait.

No Hay Argumento Tab

version 1
version 1

Whole song

79 views 1 this week
no commentswrite comment
1 2 3 4 5
3 more votes to show rating
add to favorites
×
Save as Personal and add changes to this tab that will be seen only by you. Learn more ›
×
You can save this tab as Personal to edit and correct it or add notes. All changes will be seen only by you. Learn more »
save as personal
new!
launch autoscroll
font size
0
reset
how to read this tab
guitar tuner
Autoscroll
slow
fast
+/-
esc
set tempo
stop
solo de guitarra acustica

Bm

E-9-10-9-10s12-910-----10-12-13-12-10----------------------------------------
B-------------------10-----------------1010------------------
G------------------------------------------------------
D------------------------------------------------------
A------------------------------------------------------
E------------------------------------------------------

E-12-10-99-----------10-9---------------------------------------
B----------1212-10-------10-77--------7-10--------------------------
G------------------------------9v--7-9-----9-9-7--7-9-----------
D------------------------------------------------9------
A------------------------------------------------------
E------------------------------------------------------

E------------------------------------------------------
B------------------10-12----10-12-10-----------------------------
G-------------9-11-------11---------------------------------
D-7h9-9-11-12--------------------------------------------------
A------------------------------------------------------
E------------------------------------------------------

E-7-10-9-7----9-7------7---------------------------------------
B----------10-----10-7---10-7----------------------------------
G-----------------------------9-6------------------------
D---------------------------------9-8-6-------------------
A---------------------------------------7---------------
E------------------------------------------------------

AQUI ESTA EL SOLO DE LA GUITARRA ACUSTICA SI QUIEREN OTRO SOLO
NO DUDEN EN ESCRIBIRME; OJO LA CANCION QUEDA EN Ab DESPUES
DEL  BENDICIONES.
Suggest correction
Give kudos to tab author, rate the tab!
1 2 3 4 5
comments
print report bad tab
guest
Wanna post a correction for this tab? Suggest correction