Oops, an error
Loading. Please wait.

No Hay Argumento Tab

version 2
version 2

Whole song

97 views 1 this week
no commentswrite comment
1 2 3 4 5
3 more votes to show rating
add to favorites
launch autoscroll
font size
0
reset
how to read this tab
guitar tuner
×
Best way to learn
"No Hay Argumento"
Autoscroll
slow
fast
+/-
esc
set tempo
stop
Intro: empieza con los acordes
//Bm  F#m   Em//
Trascripción a guitarra
Se puede omitir (quitar) el -9- en D

Bm                                   F#m
e---------------------------------/-----------------------------
B-12----11------12-----11---------/-12----11----12---11------11-
G---11-----11------11----11--9-11-/---11----11----11---11--11---
D-----9-------9------9-----9------/-----9-----9-----9----9------
A---------------------------------/-----------------------------
E---------------------------------/-----------------------------

Em                                 A
e-------------------------------/-----------------------------
B-12----11----12----11----------/-12---11---12----11----------
G---11----11----11----11---9-11-/---9----9----9-----9--9-11---
D-----9-----9-----9------9------/----9----9-----9----9--------
A-------------------------------/-----------------------------
E-------------------------------/-----------------------------

Solo GUITARRA ELECTRICA
e-------------------------------------------------
B---------------13V----12h13----12-13-12--13-12/--
G-------9-11-13-----------------------------------
D-5-7-9-------------------------------------------
A-------------------------------------------------
E-------------------------------------------------

e---------------16v---16v-------------------------
B-10-12-9v-9v-------------------------------------
G-------------------------------------------------
D-------------------------------------------------
A-------------------------------------------------
E-------------------------------------------------

/ = esto significa un deslizamiento hacia atrás hasta donde se quiera

V = significa mover la cuerda hacia arriba y abajo sin soltarla

Hay que oírlo bien para darle unos sonidos específicos

DIOS LES BENDIGA
Suggest correction
Give kudos to tab author, rate the tab!
1 2 3 4 5
comments
print report bad tab
guest
You may want to rate the tab now too:
select rating
Wanna post a correction for this tab? Suggest correction