Oops, an error
Loading. Please wait.

No Necesito Mucho Tab

112 views 1 this week
no commentswrite comment
1 2 3 4 5
3 more votes to show rating
add to favorites
launch autoscroll
font size
0
reset
how to read this tab
guitar tuner
Autoscroll
slow
fast
+/-
esc
set tempo
stop
Help us to improve Ultimate-Guitar.com Take our survey!
×
Capo en el 2do Traste

Guitarra Acustica

E---3---|-----2---|----------0-
B-----5-|-------3-|-----2------
G--4----|---2-----|-------2----
D-------|-0-------|---2--------
A-------|---------|-0----------
E-0-----|---------|------------
   Em        D          A

Guitarra y Cuatro

E-3-0-|---2---|---------|-3-0-|---3---|--------|
B-----|-3---3-|-2-3-3s5-|-----|-2---2-|-2-0----|
G-----|-------|---------|-----|-------|------2-|
  Em      D        A       Em     D        A

E-0-3-2-3
Em              D             A
Que me moje la lluvia, que me mire el sol
Em                 D              A
Que me abrazen mis hijos, que sienta su amor
Bm               G           A
Y que venga un amigo cuando débil soy
Bm                G          A
Y que siempre mis días sepan a canción    E-0-3-2-3

Em              D                A
Que sonría mi esposa siempre al despertar
Em                D              A
Que en mi mesa se sirva siempre vino y pan
Bm                G              A
Y si en un ángel llamara para platicar  E-5-5-5--4-4--0-0h2
Bm                G             A
Hospedaje en mi casa siempre encontrará

|-----------------------------0----2----3----||
|-------------------0----2-------------------||
|----0----2----4-----------------------------||

Pre Coro:

D                   A
No necesito mucho para vivir
        Em
Solo el ritmo que da tu palabra
     Bm                                   A
Tu presencia brillando en mi casa al amanecer

Coro:

E-----10-9-7------7
B-7-----------10---

G       A        Bm
Cuando brilla el sol, Ahí estás conmigo tú
G       A   Bm
Y en mi corazón, Eres tú el motivo, uh oh
G         A       Bm                       G Gm
Brilla en mi interior Eres lo que necesito yo

Vas conmigo al caminar

Em D A

Em              D               A
Que disfrute la vida que me has dado hoy
Em                       D            A
Que te encuentre en las cosas que me traen dolor
Bm               G              A
Y que nunca te olvide cuando el sol se va

e-0-3-3-3--3-4-4-4--4-5-5-5-5-5
E-0-3-3-3--3-4-4-4--4-5-5-5-5-5
Bm               G               A
Y que mire en la gente tu expresión tu faz

(Pre coro) (Coro)

E--------------------------------10-9-7------7
B------5-7-8-10-10-8-8-7-7---7-----------10---
G-4-6-7---------------------------------------

(Coro)

Em D A E-----------0-2-3- Em D A
       B-----0-2-3-------
       G-0-2-------------


Bm G A X3
Bm G A F# Bm, Final
Suggest correction
Give kudos to tab author, rate the tab!
1 2 3 4 5
comments
print report bad tab
guest
You may want to rate the tab now too:
select rating
Wanna post a correction for this tab? Suggest correction