Oops, an error
Loading. Please wait.

Pegado A Ti Bass

version 1
version 1

Whole song

Interactive

18 views 1 this week
no commentswrite comment
1 2 3 4 5
3 more votes to show rating
add to favorites
launch autoscroll
font size
0
reset
guitar tuner
Autoscroll
slow
fast
+/-
esc
set tempo
stop
HOLA A TODOS SALUDOS AQUI DESDE EL SALVADOR A LOS DEL GRUPO DE
ALABANZAS DE LA IGLESIA EL VERBO EN AYUTUXTEPEQUE, SAN SALVADOR...
AQUI ESTAN LAS FIGURAS DE ESTA CANCIÓN.
DICEN QUE ES DIFICIL, PERO SI LA OYES Y SIGUES LOS TOQUES
TE SERA FACIL.

Intro:
GUITARRA.
TODOS.
B--------------------------------------|
E--------------------------------------|
A--------------------------------------|
D-8------------------------12------12--|
G----10s12--12s14--12--10------10------|

B---------------------------|-------1-----------|-1s6s1--|
E---------------------------|---------1---------|--------|
A-1--1-3---3-5---3-----3-3--|-1-3---------3-----|--------|
D------------------5--------|---------------3---|--------|
G---------------------------|-------------------|--------|

ESTROFA:
NO QUIERO VERTE DE
  LEJOS
B----------------------------------------------------------------|
E-----------1----1---------1-------------------------------------|
A-1---1--3---------3-----3------1----1------1s3-----3-----3-3-3--|
D---3----------------3-------------3------3-------5--------------|
G----------------------------------------------------------------|

PRECORO:
QUIERO SABERTE A MI
 LADO TE...
B-----------------------------------------------|
E-----------------------------------------------|
A-1--1-3---1-0---3-1-----1---1-3----3----3-3-3--|
D----------------------3------------------------|
G-----------------------------------------------|

QUIERO...PEGADO...
B----------------------------------|-------1-----------|
E-1--1-----------------------------|---------1---------|
A--------1--1-3---3-5---3-----3-3--|-1-3---------3-----|
D-------------------------5--------|---------------3---|
G----------------------------------|-------------------|

REPITE ESTROFA Y CORO

PUENTE:
ACORDEÓN.
BAJO:
B----------------------------|--------------------------------------|
E----------------------------|--------------------------------------|
A----------------------------|-------------------------------15-13--|
D-8-8------8--10--10------10-|----------------------15-14-12--------|
G------10-------------12-----|-12s14-15-14-12-14-12-----------------|

-AY AY AY AY...
    FIGURAS DEL CORO

-CORO OTRA VEZ


-AY AY AY AY...x2
(ÚLTIMO)
B-----------------3s5---------------------|------------------|
E---------------------3-3s5---------------|------------3-----|
A---1--1-3---3-5------------3-3s5---------|-1-3---1-0--------|
D---------------------------------3-3s5---|---------------3--|
G---------------------------------------5-|------------------|
Suggest correction
Give kudos to tab author, rate the tab!
1 2 3 4 5
comments
print report bad tab
guest
Wanna post a correction for this tab? Suggest correction