Oops, an error
Loading. Please wait.

Prefiero A Cristo Tab

version 2
version 2

Whole song

Interactive

17 views 1 this week
no commentswrite comment
1 2 3 4 5
3 more votes to show rating
add to favorites
launch autoscroll
font size
0
reset
how to read this tab
guitar tuner
Autoscroll
slow
fast
+/-
esc
set tempo
stop
E---------------------------------------------------------
B---------3-1-0--0----------------3-1-0-------------------
G--------------------2-0-0-----------------2\4--2--0---0--
D------0------------------------0--------------------4----
A---------------------------------------------------------
E---3-------------------------3---------------------------


E----3-2---------------------------------------3------2---
B----------3-0-3--------1-------1-0-----------3-------3---
G--0-------------------2------------0--------2--------2---
D---------------------2-------2------------0--------------
A-------------------0-------0-----------------------------
E---------------------------------------------------------

Quiero mandarle un saludo a toda esa juventud que exlta el
nombre del Señor en especial a toda la juventud en Puerto Rico.
 
Dios me los Bendiga ;)
Suggest correction
Give kudos to tab author, rate the tab!
1 2 3 4 5
comments
print report bad tab
guest
Wanna post a correction for this tab? Suggest correction