Oops, an error
Loading. Please wait.

Prefiero A Cristo Bass Tab

version 1
version 1

Whole song

Interactive

22 views 1 this week
no commentswrite comment
1 2 3 4 5
3 more votes to show rating
add to favorites
launch autoscroll
font size
0
reset
guitar tuner
×
Best way to learn
"Prefiero A Cristo"
Autoscroll
slow
fast
+/-
esc
set tempo
stop
Coro

G----------------------------------------------------------
D-------------------------------0--------------------------
A------0-5---2-5-2---0-2----3-----3-2------------5---------
E--3-----------------------------------2-0---5--------3----


G----------------------------------------------------------
D----------------------------------------------------------
A----5---5------2----3---0-2-----------5------------------
E--5--------0----------------2-0---5-----------------------

Verso

G----------------------------------------------------------
D----------------------------------------------------------
A-----3----5-----------------------3--5---------5----------
E--3------------3---2-0---2---3----------5-3-----0---2-----


G----------------------------------------------------------
D----------------------------------------2-----------------
A------2-3---5-------------------2-3--5-----------2----3---
E--3------------3-----0---2---3------------0-2---3-3-------


G------------------------------------------------------7---
D-------------------2-0------------------------------------
A--3-5---6--2-----2--------0-2-3----------5-----5---5------
E-------------0--------------------3-5--------35-----------

Comentarios y sugerencias mandenmelos a
aldric_lopez@
Suggest correction
Give kudos to tab author, rate the tab!
1 2 3 4 5
comments
print report bad tab
guest
You may want to rate the tab now too:
select rating
Wanna post a correction for this tab? Suggest correction