Oops, an error
Loading. Please wait.

Prefiero A Cristo Tab

version 3
version 3

Whole song

Interactive

19 views 1 this week
no commentswrite comment
1 2 3 4 5
3 more votes to show rating
add to favorites
launch autoscroll
font size
0
reset
how to read this tab
guitar tuner
Autoscroll
slow
fast
+/-
esc
set tempo
stop
Help us to improve Ultimate-Guitar.com Take our survey!
×
TRNSCRIPCION 100% CORRECTA.

INTRO:
   G                    Cmaj7  D5
E---------------------------------------------
B------3--1---0---------0----0----------------
G-----------------0--------0---2---2--0--0----
D----0------0---0-------2--------0------------
A-----------------------3---------------------
E--3------------------------------------------

   G                     Cmaj7   D
E----------------------------------------------
B-------3---1----0-------0----0----------------
G-------0---0----0-------0-------2-----0-----0-
D-----0--------0---0-----2--2-------0-----4----
A------------------------3---------------------
E---3------------------------------------------


   Em                    Am7         Am9          Dsus4    D
E------3-2-------------------------------------------3-----2-
B------------3--0--3-----------1---------1-0--------3------3-
G----0-----0-----------------0-----------0----0----2-------2-
D--------------------------2---2-------2-----2----0--------0-
A------------------------0-----------0-----------------------
E--0---------------------------------------------------------


ESTROFA:


         NO BUSCO ...     ..JORDAN.
E-----------------0------------------------------------------------------
B--------0------1-------3----------------0-------------------------------
G------0------0-------2---2-------0-2---------0-------0--2---2--0--0-----
D----0--------------0-----------0-----------0-------2------0-------------
A-----------3-------------------------------------3----------------------
E--3--------------------------3--------3---------------------------------
       NO VOY TRAS....      ..PROSPERIDAD.
E------------------------------------------------------------------------
B--------0--------1--3----3---------------0------------------------------
G------0--------0-------2---2-----0-2---------0-------0--2----2--0--0----
D----0--------2------0----------0-----------0-------2-------0------------
A-----------3-------------------------------------3----------------------
E--3------------------------ -3--------3---------------------------------

      NO ANELO ...                ...BENDICION.
E------------------------------------------------------------------------
B-----------0---------------3----3------------0--------------------------
G-----0-2-------0-----0--------2---2-----0-2-------0-----0--2----2--0--0-
D----0--------0-----2---2---0----------0---------0-----2-------0---------
A-----------------3-----------------------------------3------------------
E--3------3-------------------------3------3-----------------------------

      NO BUSCO...                   ...UNCION.
E-----------------------------2-------------0----------------------------
B--------0--------1-----------3-------------0-------------------0--------
B------0----------0---------2---2---------0-------0-------2---------0----
D----0----------2---2-----0-------------2---------------0---0------0-0---
A-------------3----------------------------------------------------------
E--3----------------------------------0-------------------2-----3-3------

      SI TU QUIERES ....                    ....TENER.
E----------------------------------------------------------------3-------
B--------1----------------------0--------------0--------------3-----3----
G------0-----0--------2--0P2-----------------0-------0------4----------0-
D----2-----2---2----0-----------1----------2------------0-0--------------
A--3---------------------------------------------------------------------
E---------------------------------------0--------------------------------

      MAS NO SACIARA         PARA SIEMPRE TU SER.
E--------0---------------------------------------------3-2-0-----0---2---
B------1-----1--------------1--------------------3------------3----------
G----0-----------0---------0------0------------2---2---------------------
D------------------------2------2---2--------0-----------------------0---
A--3-------------------0-------------------------------------------------
E------------------------------------------------------------------------

CORO:

G             D  Em             Bm7
 Prefiero a Cristo antes que tener
C                    Bm7   Em
 Todos los reinos del mundo
Am7                  D
 No se comparan con Él
G             D  Em            Bm7
 Prefiero a Cristo me quedo con Él
C                 Bm7  Em
 Es el tesoro escondido
Am7   Dsus4      G
 Que tanto busqué
Suggest correction
Give kudos to tab author, rate the tab!
1 2 3 4 5
comments
print report bad tab
guest
You may want to rate the tab now too:
select rating
Wanna post a correction for this tab? Suggest correction