Oops, an error
Loading. Please wait.

Que Se Trata De Tí Tab

28 views 1 this week
no commentswrite comment
1 2 3 4 5
3 more votes to show rating
add to favorites
launch autoscroll
font size
0
reset
how to read this tab
guitar tuner
×
Best way to learn
"Que Se Trata De Tí"
Autoscroll
slow
fast
+/-
esc
set tempo
stop
Intro:

Gadd9   G   Gadd9   G                   E7sus4  Em  E7sus4  Em
E-3-----3-----3-----3--------5s3----------0-----0-----0-----0---
B-0-----3-----0-----3---3s5-------3s5-----0-----0-----0-----0---
G-2-----0-----2-----0---------------------2-----0-----2-----0---
D-0-----0-----0-----0---------------------0-----2-----0-----2---
A-2-----2-----2-----2---------------------2-----2-----2-----2---
G-3-----3-----3-----3---------------------0-----0-----0-----0---

   C2             Am7            D4
E--------0---------0-------------3-----3-----3-----2-----0------
B--3--------3------------0h1--0-----3-----3-----3-----3---------
G-----0--------0------0-----------------------------------------
D--------------------------------0------------------------------
A--3---------------0--------------------------------------------
G---------------------------------------------------------------

Estrofas:

Gadd9       G
Quiero entender
Gadd9          G        E7sus4  Em
Que es lo que mueve tu fiel corazón
E7sus4      Em      C2             Am7
Y lo que esperas de mi buen Señor
           D
Para entregarlo
Gadd9       G
Quiero expresar
Gadd9   G          E7sus4  Em
Esas palabras que quieres  oir
E7sus4   Em         C2            Am7
Y la canción que te hara sonreir
           D
Quiero entonarla

Precoro:

Am         C2     D
Quiero agradar tu corazón
Am           C2     D
Quiero encontrar esa canción

Coro:

           G
Dejanos empezar de nuevo
        Em
Y descubrir tu corazón
C2                Am
Para darte lo que anhelas
          D
En adoración
            G
Si nos desviamos te pedimos
           Em
Que nos permitas regresar
       C2         D
A expresarte nuevamente
                D
Que se trata de Ti
                G
Se trata de Ti

Final:
              G
Se trata de Ti
              C
Se trata de Ti

*Nota: El precoro puede lleva un arpeggio mas o menos así

   Am                C2                            D
E-----------0-----------0--------------------0-----2--------
B--------1-----1-----------2-----------2--------2-----3-----
G-----2-----------2-----------------0-----0--------------2--
D--------------------------------0-----------------0--------
A--0-----------------3--------3-----------------------------
E-----------------------------------------------------------

E----------3----------2--0----------------------------------
B-------3----------3----------------------------------------
G-----------------------------------------------------------
D-----------------------------------------------------------
A--0h2--------0h2-------------------------------------------
E-----------------------------------------------------------

   Am                C2                            D
E-----------0-----------0--------------------0-----2--3-----
B--------1-----1-----------2-----------2--------2--3--3-----
G-----2-----------2-----------------0-----0--------2--5-----
D--------------------------------0-----------------0--5-----
A--0-----------------3--------3-----------------------3-----
E-----------------------------------------------------x-----

Bueno este tab lo saque de esta manera pero si tienen dudas o correcciones solo mandamelas por mail
Suggest correction
Give kudos to tab author, rate the tab!
1 2 3 4 5
comments
print report bad tab
guest
You may want to rate the tab now too:
select rating
Wanna post a correction for this tab? Suggest correction