Oops, an error
Loading. Please wait.

Que Seas Mi Universo Tab

version 1
version 1

Whole song

129 views 1 this week
no commentswrite comment
1 2 3 4 5
3 more votes to show rating
add to favorites
launch autoscroll
font size
0
reset
how to read this tab
guitar tuner
Autoscroll
slow
fast
+/-
esc
set tempo
stop
Help us to improve Ultimate-Guitar.com Take our survey!
×
Jesús Adrián Romero
Transcripción de JORGE IVAN JIMENEZ


Intro con capo en el primer traste para que te salga bien.
Pero si no tienes se escucha bien?

Espero que estos acordes te sirvan.

        /G/                  C
E|-3------------------|------------------|
A|--------------------|-----3------------|
D|-----0--------------|---------0--------|
G|---0---2-2--4--2--0-|-------0---2-2-4--|
B|--------------------|------------------|
e|--------------------|------------------|
        /G/
E|-3------------------|-----------------------------|
A|--------------------|----3-----3--3----3----0-----|
D|-----0--------------|-----------------------------|
G|---0---2-2--4--2--0-|-----------------------2--2--|
B|--------------------|-------------1----0------3---|
e|--------------------|-----------------------------|

                G
que seas mi universo

                     E|-3------------------|
                     A|--------------------|
                     D|-----0--------------|
                     G|---0---2-2--4--2--0-|
                     B|--------------------|
                     e|--------------------|
          Cadd2/G
no quiero darte solo un rato de mi tiempo

                                      E|-3------------------|
                                      A|--------------------|
                                      D|-----0--------------|
                                      G|---0---2-2--4--2--0-|
                                      B|--------------------|
                                      e|--------------------|


   G         C         Am7      D      (Arpegiar  en D)
no quiero separarme un dia solamente

                G
que seas mi universo


                    E|-3------------------|
                    A|--------------------|
                    D|-----0--------------|
                    G|---0---2-2--4--2--0-|
                    B|--------------------|
                    e|--------------------|
          Cadd2/G
no quiero darte mis palabras como gotas

                                     E|-3------------------|
                                     A|--------------------|
                                     D|-----0--------------|
                                     G|---0---2-2--4--2--0-|
                                     B|--------------------|
                                     e|--------------------|


      C                    Am7          D  (Arpegiar en D)
quiero un  diluvio de alabanzas en mi boca


C       D        G
Que seas mi universo
          Cadd2/G                            G
Que seas todo lo que siento y lo que pienso
           Cadd2/G                      Am7
Que seas el primer aliento en la mañana
                  D
Y la luz en mi ventana

          G
Que seas mi universo
           Cadd2/G                     G
Que encierres cada uno de mis pensamientos
          Cadd2/G                    Am7
Que tu presencia y tu poder sean mi alimento
                  D
Oh Jesus es mi deseo

                G
Que seas mi universo

                     E|-3------------------|
                     A|--------------------|
                     D|-----0--------------|
                     G|---0---2-2--4--2--0-|
                     B|--------------------|
                     e|--------------------|
           Cadd2/G                  G
No quiero darte solo parte de mis años

                                      E|-3------------------|
                                      A|--------------------|
                                      D|-----0--------------|
                                      G|---0---2-2--4--2--0-|
                                      B|--------------------|
                                      e|--------------------|


            Cadd2/G        Am7              D (arpegiar en D)
Te quiero dueño de mi tiempo y de mi espacio

                G
Que seas mi universo

                     E|-3------------------|
                     A|--------------------|
                     D|-----0--------------|
                     G|---0---2-2--4--2--0-|
                     B|--------------------|
                     e|--------------------|


            Cadd2/G                      G
No quiero hacer mi voluntad quiero agradarte

                                      E|-3------------------|
                                      A|--------------------|
                                      D|-----0--------------|
                                      G|---0---2-2--4--2--0-|
                                      B|--------------------|
                                      e|--------------------|


         Cadd2/G         Am7            D (Arpegiar)
y cada sueño que hay en mi quiero entregarte


C        D     G
Que seas mi universo
          Cadd2/G                       G
Que seas todo lo que siento y lo que pienso
           Cadd2/G         Am7
Que seas el primer aliento en la mañana
                   D
Y la luz en mi ventana

                G
Que seas mi universo
           Cadd2/G                      G
Que encierres cada uno de mis pensamientos
          Cadd2/G                      Am7
Que tu presencia y tu poder sean mi alimento
                 D
Oh Jesus es mi deseo
                 G
Que seas mi universo


CON MUCHO AMOR PARA DIOS? QUE BENDIGA A LA IGLESIA
?LUZ EN TU SENDA? DE GUATEMALA, JUTIAPA, QUESADA?
ELIZABETH ERES LA MUJER QUE DIOS PUSO EN MI CAMINO TE AMO?.

NOTA RARA:

Cadd2/G  E----3-----
          ----3-----
          ----------
          ----2-----
          ----2-----
          ----------
Suggest correction
Give kudos to tab author, rate the tab!
1 2 3 4 5
comments
print report bad tab
guest
You may want to rate the tab now too:
select rating
Wanna post a correction for this tab? Suggest correction