Oops, an error
Loading. Please wait.

Que Seas Mi Universo Tab

version 2
version 2

Whole song

37 views 1 this week
no commentswrite comment
1 2 3 4 5
3 more votes to show rating
add to favorites
launch autoscroll
font size
0
reset
how to read this tab
guitar tuner
×
Best way to learn
"Que Seas Mi Universo"
Autoscroll
slow
fast
+/-
esc
set tempo
stop
este es el arpegio del principio:


ARPEGIO INTRO:

E)-------------------------------------------------
B)-------------------------------------------------
G)-------0-2-2-4-2-0------0-2-2-4------------------
D)-----0----------------2--------------------------
A)--------------------3----------------------------
E)--3----------------------------------------------


E)-------------------------------------------------
B)---------------------------------------3---------
G)-------0-2-2-4-2-0--4-5-5s7-5-4h5p4--2----2------
D)-----0-------------------------------------------
A)-------------------------------------------------
E)--3----------------------------------------------
Suggest correction
Give kudos to tab author, rate the tab!
1 2 3 4 5
comments
print report bad tab
guest
You may want to rate the tab now too:
select rating
Wanna post a correction for this tab? Suggest correction