Oops, an error
Loading. Please wait.

Que Seas Mi Universo Tab

version 3
version 3

Whole song

44 views 1 this week
no commentswrite comment
1 2 3 4 5
3 more votes to show rating
add to favorites
×
Save as Personal and add changes to this tab that will be seen only by you. Learn more ›
×
You can save this tab as Personal to edit and correct it or add notes. All changes will be seen only by you. Learn more »
save as personal
new!
launch autoscroll
font size
0
reset
how to read this tab
guitar tuner
Autoscroll
slow
fast
+/-
esc
set tempo
stop
     intro

        /G/                    /Cadd9/
E|-3------------------|------------------|
A|--------------------|-----3------------|
D|-----0--------------|---------0--------|
G|---0---2-2--4--2--0-|-------0---2-2-4--|
B|--------------------|------------------|
e|--------------------|------------------|

        /G/
E|-3------------------|-----------------------------|
A|--------------------|----3-----3--3----3----0-----|
D|-----0--------------|-----------------------------|
G|---0---2-2--4--2--0-|-----------------------2--2--|
B|--------------------|------0h1h3--1----0------3---|
e|--------------------|-----------------------------|

                G
que seas mi universo

E|-3------------------|
A|--------------------|
D|-----0--------------|
G|---0---2-2--4--2--0-|
B|--------------------|
e|--------------------|
          Cadd9
no quiero darte solo un rato de mi tiempo
E|------------------|
A|-----3------------|
D|---------0--------|
G|-------0---2-2-4--|
B|------------------|
e|------------------|

       G
de mi tiempo

E|-3------------------|
A|--------------------|
D|-----0--------------|
G|---0---2-2--4--2--0-|
B|--------------------|
e|--------------------|

                       Am7
no quiero separarme un dia solamente

E|-0--------|                        E|---------------|
A|-0--------|                        A|--5-------5----|
D|-0--------|                        D|---4-----4-----|
G|-5--------|                        G|----0---0------|
B|-5--------|                        B|------2--------|
e|-0--------|                        e|---------------|

                G
que seas mi universo


E|-3------------------|
A|--------------------|
D|-----0--------------|
G|---0---2-2--4--2--0-|
B|--------------------|
e|--------------------|
          Cadd9
no quiero darte mis palabras como gotas

E|------------------|
A|-----3------------|
D|---------0--------|
G|-------0---2-2-4--|
B|------------------|
e|------------------|
     G
como gotas

E|-3------------------|
A|--------------------|
D|-----0--------------|
G|---0---2-2--4--2--0-|
B|--------------------|
e|--------------------|


                          Am7        Dsus4
quiero un  diluvio de alabanzas en mi boca

E|-0--------|
A|-0--------|
D|-0--------|
G|-5--------|
B|-5--------|
e|-0--------|


C       Dsus4    G
Que seas mi universo
          Cadd9                            G
Que seas todo lo que siento y lo que pienso
           Cadd9                      Am7
Que seas el primer aliento en la mañana
                  Dsus4
Y la luz en mi ventana

          G
Que seas mi universo
           Cadd9                     G
Que encierres cada uno de mis pensamientos
          Cadd9                    Am7
Que tu presencia y tu poder sean mi alimento
                 Dsus4
Oh Jesus es mi deseo
                G
Que seas mi universo


           Cadd9                  G
No quiero darte solo parte de mis años

            Cadd9        Am7              Dsus4
Te quiero dueño de mi tiempo y de mi espacio
                G
Que seas mi universo
            Cadd9                       G
No quiero hacer mi voluntad quiero agradarte
         Cadd9           Am7
y cada sueño que hay en mi quiero entregarte

                                       E|---------------|
                                       A|--5-------5----|
                                       D|---4-----4-----|
                                       G|----0---0------|
                                       B|------2--------|
                                       e|---------------|


C     Dsus4     G
Que seas mi universo
          Cadd9                       G
Que seas todo lo que siento y lo que pienso
           Cadd9      Am7
Que seas el primer aliento en la mañana
                   Dsus4
Y la luz en mi ventana

                G
Que seas mi universo
           Cadd9                      G
Que encierres cada uno de mis pensamientos
          Cadd9                         Am7
Que tu presencia y tu poder sean mi alimento
                 Dsus4
Oh Jesus es mi deseo
                 G
Que seas mi universo


        /G/                    /Cadd9/
E|-3------------------|------------------|
A|--------------------|-----3------------|
D|-----0--------------|---------0--------|
G|---0---2-2--4--2--0-|-------0---2-2-4--|
B|--------------------|------------------|
e|--------------------|------------------|

        /G/                                              G
E|-3------------------|--------------------------------|
A|--------------------|----3-----3--3----3------0------|
D|-----0--------------|--------------------------------|
G|---0---2-2--4--2--0-|-------------------------2---2--|
B|--------------------|------0h1h3--1----0h1p0----3----|
e|--------------------|--------------------------------|


notas utilisadas:


    /Cadd9/        /Dsus4/      /Am7/        /G/          /C/
E|---0--------||--0--------||--0-------||----3------||--0-------|
A|---3--------||--0--------||--0-------||----2------||--3-------|
D|---2--------||--0--------||--2-------||----0------||--2-------|
G|---0--------||--2--------||--0-------||----0------||--0-------|
B|---3--------||--3--------||--1-------||----3------||--1-------|
e|---3--------||--0--------||--0-------||----3------||--0-------|

un saludo para los cabros de "K-iros" PaTaN BasS que pronto vamos
tener nuestras transcripciones aki
Suggest correction
Give kudos to tab author, rate the tab!
1 2 3 4 5
comments
print report bad tab
guest
Wanna post a correction for this tab? Suggest correction