Oops, an error
Loading. Please wait.

Qué Sería De Mí Tab

version 1
version 1

Whole song

Interactive

95 views 3 this week
no commentswrite comment
1 2 3 4 5
3 more votes to show rating
add to favorites
launch autoscroll
font size
0
reset
how to read this tab
guitar tuner
Autoscroll
slow
fast
+/-
esc
set tempo
stop
Help us to improve Ultimate-Guitar.com Take our survey!
×
esta es mi primera transcripción y aqui esta el solo de la guitarra
acustica

E------------------------------------------------------
B-8s12 12-12--8-10-10-10--7-7/8-8-8?5s7----------------
G------------------------------------------------------
D------------------------------------------------------
A------------------------------------------------------
E------------------------------------------------------

E------------------------------------------------------
B-15-15-15-15-15s12--10-8--8-10---7/8-8-8--11-10-8----
G----------------------------------------------------
D------------------------------------------------------
A------------------------------------------------------
E------------------------------------------------------

E-------------------------------------------15-14--------
B--8-8-8s12-12-12-12-12--10-10---10-12-13-----------------
G------------------------------------------------------
D------------------------------------------------------
A------------------------------------------------------
E------------------------------------------------------

E--------------12----------------------------------------
B--12-13---12------------------------------------------------
G------------------------------------------------------
D------------------------------------------------------
A------------------------------------------------------
E------------------------------------------------------

saludos para todos!!
Que Dios los bendiga siempre!!!
Suggest correction
Give kudos to tab author, rate the tab!
1 2 3 4 5
comments
print report bad tab
guest
You may want to rate the tab now too:
select rating
Wanna post a correction for this tab? Suggest correction