Oops, an error
Loading. Please wait.

Queremos Ver Bass

29 views 1 this week
no commentswrite comment
1 2 3 4 5
3 more votes to show rating
add to favorites
launch autoscroll
font size
0
reset
guitar tuner
×
Best way to learn
"Queremos Ver"
Autoscroll
slow
fast
+/-
esc
set tempo
stop
QUEREMOS A CRISTO PROCLAMAR

G:-000-0---------------------
D:------0-0--0--2------------
A:---------------------------
E:---------------------------

  COMO UN ESTANDARTE LEVANTAR

G:---------------------------
D:-22-2----------------------
A:------3-3--33-3------------
E:---------------------------

  QUE TODA LA GENTE PUEDA VER

G:-0-00-0--------------------
D:--------0-0--0-0-2---------
A:---------------------------
E:---------------------------

QUE EL ES EL CAMINO AL CIELO

G:---------------------------
D:-2-2--2--------------------
A:--------33--33-------------
E:---------------------------

(CORO)

QUEREMOS VER

G:--------
D:-0------
A:---5----
E:--------

 QUEREMOS VER

G:-------
D:-2-----
A:-------
E:---0---

 A JESUCRISTO COMO REY

G:---------------------------
D:---------------------------
A:-3--333--33----------------
E:-------------3-------------

 PASO A PASO HACIA EL FRENTE

G:---------------------------
D:-00--00--22--22------------
A:---------------------------
E:---------------------------

POCO A POCO A GANAR

G:---------------------------
D:-00--00---2-2--------------
A:---------------------------
E:-------------0-------------

CON LA ORACION LAS FORTALEZAS

G:---------------------------
D:00----------22-------------
A:----5s-7-77----------------
E:---------------------------

 TODAS CAEN, TODAS CAEN Y CAEN Y CAEN Y CAEN.

G:-------------------0-------
D:-------00-0--0--0-0--------
A:-33-3----------------------
E:---------------------------

BUENO PUES QUI ESTA LA CANCION PARA QUE LA TOQUEN
BIEN POR QUE ES PARA DIOS.
Suggest correction
Give kudos to tab author, rate the tab!
1 2 3 4 5
comments
print report bad tab
guest
You may want to rate the tab now too:
select rating
Wanna post a correction for this tab? Suggest correction