Oops, an error
Loading. Please wait.

Queremos Ver Tab

41 views 9 this week
no commentswrite comment
1 2 3 4 5
3 more votes to show rating
add to favorites
launch autoscroll
font size
0
reset
how to read this tab
guitar tuner
Autoscroll
slow
fast
+/-
esc
set tempo
stop
Help us to improve Ultimate-Guitar.com Take our survey!
×
  Intro:  //G , D , Em , C//

  E--3-3-5--5-7-8-7-5-5-3-------3-3-5--5-7-8-7-5-5-3-------
  B---3----3-------------5-3-----3----3-------------5-3----
  G--------------------------------------------------------
  D--------------------------------------------------------


  Verso:

    G            D              Em               C
  //Queremos a Cristo proclamar, como un estandarte levantar,

    G              D           Em              C
  que toda la genTe pueda ver, que el es el camino al cielo'//

    G          D(2x)        Em(2x)           D        G
  //Queremos ver, queremos ver, a Jesuscristo con poder//

    //G , D , Em , C//

  E--3-3-5--5-7-8-7-5-5-3-------3-3-5--5-7-8-7-5-5-3-------
  B---3----3-------------5-3-----3----3-------------5-3----
  G--------------------------------------------------------
  D--------------------------------------------------------


   Em                       D
  Pasao a paso hacia enfrente poco a poco a ganar
   Em                       D
  la oracion nos fortalece y las murallas cairan, cairan, cairan

  //G , D , Em , C//
Suggest correction
Give kudos to tab author, rate the tab!
1 2 3 4 5
comments
print report bad tab
guest
You may want to rate the tab now too:
select rating
Wanna post a correction for this tab? Suggest correction