Oops, an error
Loading. Please wait.

Se Desbaratan Mis Sueños Tab

version 1
version 1

Whole song

59 views 3 this week
no commentswrite comment
1 2 3 4 5
3 more votes to show rating
add to favorites
launch autoscroll
font size
0
reset
how to read this tab
guitar tuner
Autoscroll
slow
fast
+/-
esc
set tempo
stop
Para empezar vamos hablar del guitarrista de Jesús Adrián Romero
o sea Daniel Freire muchos saben que toca genial la guitarra
electroacústica pero en casi todas las canciones toca con cejillo
o como lo llaman los mexicanos capo aquí esta la incógnita tienen
que bajarle ½ a la guitarra  o sea en vez de ser  e-B-G-D-A-E lo
dejan en Eb-Bb-Gb-Db-Ab-Eb   para que puedas tocar igual que el.
Cuando bajes ½ tono a la guitarra colocas el cejillo en el 4to espacio.
Si ya colocaste el cejillo olvídate de que esta en el 4to espacio y
desde allí empiezas a contar 1er. Espacio, 2do espacio, 3er espacio
y etc.
Para que puedas hacer los acordes de abajo con el tono que es Bb.


  Tono: Bb

   Intro:
         Gsus2             Bm7                 Cadd9
    e |-------3-----------------2----------------0--------------------|
    B |----------3-----------------3----------------3--------3-----1--|
    G |-----0----------------------------------0-----------0----0-----|
    D |-----------------------4---------------------------------------|
    A |--------------------2-----------------3------------------------|
    E |---3-----------------------------------------------------------|

         Gsus2             Bm7                 Cadd9
    e |-------3-----------------2----------------0--------------|
    B |----------3-----------------3----------------3-----------|
    G |-----0----------------------------------0-----------0----|
    D |-----------------------4---------------------------------|
    A |--------------------2-----------------3------------------|
    E |---3-----------------------------------------------------|


Verso. I

       Gsus2               Bm7               Cadd9
       Qué es lo que sueñas Tú que mueve Tu interior
    e |-------3-----------------2----------------0-------------------|
    B |----------3-----------------3----------------3--------3-----1-|
    G |-----0----------------------------------0-----------0----0----|
    D |-----------------------4--------------------------------------|
    A |--------------------2-----------------3-----------------------|
    E |---3----------------------------------------------------------|

        Gsus2            Bm7                 Cadd9
       Que te llevo a la cruz como es Tu corazón
    e |-----3-----------------2----------------0-----------------0--2--3-|
    B |--------3-----------------3----------------3-----------3----------|
    G |---0----------------------------------0-----------0---------------|
    D |---------------------4--------------------------------------------|
    A |------------------2-----------------3-----------------------------|
    E |-3----------------------------------------------------------------|


        Em             D                     C
       Porque dejaste el cielo cual es tu pasión
       G6           Am7                    Dsus4  D
       Quiero entenderlo y conocer Tu corazón.

   CORO.
                     Gadd9       D         Em
                   Y al conocer tu corazón
                 Bm7                    C
                   Mi mundo se hace pequeño
                  G6                  Am7  Dsus4  D
                   Se desbaratan mis sueños
                          Gadd9     D        Em
                   Y al descubrir tu gran amor
                 Bm7                  C
                   Cobra sentido mi vida
                 G6                 Am7  Dsus4 D
                   Todo problema se olvida


                 Gsus2             Bm7                 Cadd9
    e |-------3-----------------2----------------0-------------------|
    B |----------3-----------------3----------------3--------3-----1-|
    G |-----0----------------------------------0-----------0----0----|
    D |-----------------------4--------------------------------------|
    A |--------------------2-----------------3-----------------------|
    E |---3----------------------------------------------------------|

                 Gsus2             Bm7                 Cadd9
    e |-------3-----------------2----------------0-------------|
    B |----------3-----------------3----------------3----------|
    G |-----0----------------------------------0-----------0---|
    D |-----------------------4--------------------------------|
    A |--------------------2-----------------3-----------------|
    E |---3----------------------------------------------------|


Verso.  II

       Gsus2      Bm7                     Cadd9
       Mirar con tu mirada es el deceo en mi
       Gsus2          m7                Cadd9
       Sentir tu corazon dentro de mi latir
       Em               D                  C
       Vivir por tus anhelos y por tu sentir
       G6           m7               Dsus4  D
       Es como quiero cada día yo vivir

   CORO. 2 veces
                       Gadd9    D         Em
                   Y al conocer tu corazón
                 Bm7                  C
                   Mi mundo se hace pequeño
                  G6               Am7  Dsus4  D
                   Se desbaratan mis sueños
                         Gadd9      D          Em
                   Y al descubrir tu gran amor
                 Bm7                  C
                   Cobra sentido mi vida
                 G6                 Am7  Dsus4 D
                   Todo problema se olvida


   Final.
                 Gsus2             Bm7                 Cadd9
    e |-------3-----------------2----------------0-------------------|
    B |----------3-----------------3----------------3--------3-----1-|
    G |-----0----------------------------------0-----------0----0----|
    D |-----------------------4--------------------------------------|
    A |--------------------2-----------------3-----------------------|
    E |---3----------------------------------------------------------|

        Gsus2                       Bm7              Cadd9     G6
       Qué es lo que sueñas Tú que mueve Tu interior.
    e |-------3-----------------2----------------0--------------------|
    B |----------3-----------------3----------------3-----------------|
    G |-----0------------------------------------------0----------0---|
    D |-----------------------4-----------------------------------0---|
    A |--------------------2---------------------3----------------2---|
    E |---3-------------------------------------------------------3---|


                                              Acordes
Gsus2 = 3X0033   Bm7 = X24232   Cadd9 = X30030   Em = 022003   D = XX0232
           C = X32010   G6 = 320000   Am7 = X02010   Dsus4 = XX0233

       TE AMO PRISCILLA
Suggest correction
Give kudos to tab author, rate the tab!
1 2 3 4 5
comments
print report bad tab
guest
Wanna post a correction for this tab? Suggest correction