Oops, an error
Loading. Please wait.

Sobre Tu Regazo Tab

30 views 1 this week
no commentswrite comment
1 2 3 4 5
3 more votes to show rating
add to favorites
launch autoscroll
font size
0
reset
how to read this tab
guitar tuner
Autoscroll
slow
fast
+/-
esc
set tempo
stop
Bueno, para tocar bien el canto
tienen q afinar la guitarra acstica en Drop D#
(medio tono abajo)


Intro:
     F#              G#7sus4    D#m7            Badd2
d#-|--------3--------------3------------3--------------3--|
A#-|----3-----3---3-----3---3------3-----3---3-----3------|
F#-|---0--0------0-----0-0---0----0--0------0-----0-0-----|
C#-|--0----0----0-----2----------2----2----2-----2--------|
G#-|-----------------0--------------------------3---------|
D#-|-3--------------------------0-------------------------|

(La estrofa se canta sobre la misma intro)

F#                         G#7sus4
  Sobre tu regazo ponme ahora
                    D#m7
  y en mi corazón marca la hora
                Badd2
  para volver a comenzar
F#                        G#7sus4
  solo una mirada es suficiente
                     D#m7
  solo un beso tuyo aqui en mi frente
           Badd2
  para volver a caminar.


Pre-Coro:

    C#
Que sea un momento sin igual
d#-|--2------2----3--2----|
A#-|------3----3-------3--|
F#-|----2-----------------|
C#-|--0-------------------|
G#-|----------------------|
D#-|----------------------|

     A#m        D#m7
sin precedente, singular
d#-|--2-------------3---2-3--|
A#-|------3-----------2------|
F#-|----4---4----------------|
C#-|-------------0-----------|
G#-|--2----------------------|
D#-|------------0------------|

    G#m          F#/A#  B
   Para empezar,     para empezar
d#-|-----------------------------|
A#-|--1-----1---1--3---1--1---1--|
F#-|--2-----2---2--0---0--0---0--|
C#-|--2-------2----0-------------|
G#-|--0------------2---3---------|
D#-|-----------------------------|


C O R O:
F#                             G#7sus4
  Dame un nuevo día para comenzar
                         F#/A#
  y una melodía para caminar
                                 Badd2
  dame las palabras que me llevarán
                              F#
  a caminar haciendo tu voluntad
                                     G#7sus4
  Dame la sonrisa que hay en tu interior
                           F#/A#
  y la sintonia con tu corazón
                           Badd2
  dame sintonía dame dirección
                               F#
  para escuchar cada mañana tu voz.


     F#              G#7sus4
d#-|--------3--------------3----|
A#-|----3-----3---3-----3---3---|
F#-|---0--0------0-----0-0---0--|
C#-|--0----0----0-----2---------|
G#-|-----------------0----------|
D#-|-3--------------------------|


F#                         G#7sus4
  Sobre tu regazo ponme ahora
                    D#m7
  y en mi corazón marca la hora
                Badd2
  para volver a comenzar
F#                        G#7sus4
  solo una mirada es suficiente
                     D#m7
  solo un beso tuyo aqui en mi frente
           Badd2
  para volver a caminar.


Pre-Coro:

    C#
Que sea un momento sin igual
d#-|--2------2----3--2----|
A#-|------3----3-------3--|
F#-|----2-----------------|
C#-|--0-------------------|
G#-|----------------------|
D#-|----------------------|

     A#m        D#m7
sin precedente, singular
d#-|--2-------------3---2-3--|
A#-|------3-----------2------|
F#-|----4---4----------------|
C#-|-------------0-----------|
G#-|--2----------------------|
D#-|------------0------------|

    G#m          F#/A#  B
   Para empezar,     para empezar
d#-|-----------------------------|
A#-|--1-----1---1--3---1--1---1--|
F#-|--2-----2---2--0---0--0---0--|
C#-|--2-------2----0-------------|
G#-|--0------------2---3---------|
D#-|-----------------------------|


C O R O:
F#                             G#7sus4
  Dame un nuevo día para comenzar
                         F#/A#
  y una melodía para caminar
                                 Badd2
  dame las palabras que me llevarán
                              F#
  a caminar haciendo tu voluntad
                                     G#7sus4
  Dame la sonrisa que hay en tu interior
                           F#/A#
  y la sintonia con tu corazón
                           Badd2
  dame sintonía dame dirección


G#                             A#7sus4
  Dame un nuevo día para comenzar
                         G#/C
  y una melodía para caminar
                                 C#2
  dame las palabras que me llevarán
                              G#
  a caminar haciendo tu voluntad
                                     A#7sus4
  Dame la sonrisa que hay en tu interior
                           G#/C
  y la sintonia con tu corazón
                           C#2
  dame sintonia dame dirección
                               G#
  para escuchar cada mañana tu voz.

Solo:

   G#            A#7sus4    G#/C               C#2
e-|-----4--3--4-----4--3--4-----4--3--4------11--9-----|
B-|--------------2-----------1--------------9------9---|
G-|-0h1----------------------------------6/8---------8-|

             G#           A#7sus4    G#/C
e-|----------4---4--3--4-----4--3--4-----4--3--4-------11--9-----|
B-|-----------------------2-----------4---------------9------9---|
G-|-5h6--5h6---------------------------------------6/8-----------|


Acordes usados:

                 F#

       1    2    3    4    5
d#-| |----|----|---|----|----|
A#-| |----|----|---|----|----|
F#-| |----|----|----|----|----|
C#-| |----|----|----|----|----|
G#-|x|----|----|----|----|----|
D#-| |----|----|---|----|----|


              G#7sus4

       1    2    3    4    5
d#-| |----|----|---|----|----|
A#-| |----|----|---|----|----|
F#-| |----|----|----|----|----|
C#-| |----|---|----|----|----|
G#-|0|----|----|----|----|----|
D#-| |----|----|----|----|----|


                D#m7

       1    2    3    4    5
d#-| |----|----|---|----|----|
A#-| |----|----|---|----|----|
F#-| |----|----|----|----|----|
C#-| |----|---|----|----|----|
G#-| |----|---|----|----|----|
D#-| |----|----|----|----|----|


               Badd2

       1    2    3    4    5
d#-| |----|----|---|----|----|
A#-| |----|----|---|----|----|
F#-| |----|----|----|----|----|
C#-| |----|---|----|----|----|
G#-| |----|----|---|----|----|
D#-|X|----|----|----|----|----|


                 C#

       1    2    3    4    5
d#-| |----|---|----|----|----|
A#-| |----|----|---|----|----|
F#-| |----|---|----|----|----|
C#-| |----|----|----|----|----|
G#-|X|----|----|----|----|----|
D#-|X|----|----|----|----|----|


               A#m

       1    2    3    4    5
d#-| |----|-||-|----|----|----|
A#-| |----|-||-|---|----|----|
F#-| |----|-||-|----|---|----|
C#-| |----|-||-|----|---|----|
G#-| |----|-||-|----|----|----|
D#-| |----|-||-|----|----|----|


               F#/A#

       1    2    3    4    5
d#-| |----|----|---|----|----|
A#-| |----|----|---|----|----|
F#-| |----|----|----|----|----|
C#-| |----|----|----|----|----|
G#-| |----|---|----|----|----|
D#-|X|----|----|----|----|----|


                 G#

       1    2    3    4    5
d#-| |----|----|----|----|----|
A#-| |----|---|----|----|----|
F#-| |----|---|----|----|----|
C#-| |----|---|----|----|----|
G#-| |----|----|----|----|----|
D#-|X|----|----|----|----|----|


              A#7sus4

       1    2    3    4    5
d#-| |----|-||-|----|----|---|
A#-| |----|-||-|----|----|---|
F#-| |----|-||-|----|----|----|
C#-| |----|-||-|----|---|----|
G#-| |----|-||-|----|----|----|
D#-|X|----|----|----|----|----|


               G#/C

       1    2    3    4    5
d#-| |----|----|----|----|----|
A#-| |----|---|----|----|----|
F#-| |----|---|----|----|----|
C#-| |----|---|----|----|----|
G#-| |----|----|----|---|----|
D#-| |----|----|----|----|----|


                 C#2

       1    2    3    4    5
d#-| |----|----|----|----|----|
A#-| |----|----|---|----|----|
F#-| |----|---|----|----|----|
C#-| |----|----|----|----|----|
G#-|X|----|----|----|----|----|
D#-|X|----|----|----|----|----|


OoOk!
Aki esta la rola full!
Cualquier duda: marvillagran@


Bendiciones desde Guatemala!
Suggest correction
Give kudos to tab author, rate the tab!
1 2 3 4 5
comments
print report bad tab
guest
You may want to rate the tab now too:
select rating
Wanna post a correction for this tab? Suggest correction