Oops, an error
Loading. Please wait.

Sólo El Eco Tab

113 views 1 this week
no commentswrite comment
1 2 3 4 5
3 more votes to show rating
add to favorites
launch autoscroll
font size
0
reset
how to read this tab
guitar tuner
×
Best way to learn
"Sólo El Eco"
Autoscroll
slow
fast
+/-
esc
set tempo
stop
OKK hola DTB a todos me llamo edwis rodriguez
de valencia-Venezuela. Aquí les dejo
la tablaturas del tema ?solo el eco?
 completamente original, ya que gracias
 a la ayuda del video intruccional de Daniel freire
 pude dominar al 100% la canción y mejorar algunos errores,
les recomiendo que vean el video y lo practiquen
con las tablaturas, estoy seguro que se le hará
 mucho + fácil que solo viendo el video ya que hay
unas cositas ocultas las cuales están en esta tablaturas,
 disfrútenlas


PONGAN EL CAPO EN EL 3 TRASTE.
Intro se repite 2 veces:
              D                           A 
E|-----------------3--------------|-------------3----------|
B|--------------------------------|------------------------|
G|-11--------------------11-------|-5---------------5------|
D|-----------12--------------12---|--------7-----------7---|
A|------ 12------12---------------|-----7-----7------------|
E|-10--10--10--10--10--10--10--10-|-3--3--3--3--3--3--3--3-|


              C                   G

E|-------------7----------|----------------|
B|-5----------------------|----------------|
G|--------5------7--------|-4-----------4--|
D|-----5-----5--------5---|--------5-------|
A|-3--3--3--3--3--3--3--3-|-----5-----5----|
E|------------------------|-3--3--3--3--3--|

y continua la misma secuencia en el himno hasta llegar al precoro.


En la primera y segunda estrofa es lo mismo, cambia solo en el
Pre-coro que dice ?pero no me alcanza no me sacia no, no me
Conformo nada mas con añorar? que seria así:

          Em                         B
E|-------------7----------|-------------7----------|
B|-8----------------------|------------------------|
G|--------9---------9-----|-8---------------8------|
D|-----9-----9--------9---|--------9-----------9---|
A|-7--7--7--7--7--7--7-7--|-----9-----9------------|
E|------------------------|-7--7--7--7--7--7--7--7-|


          C*                            A
E|-------------8----------|-------------8----------|
B|------------------------|------------------------|
G|-9---------------9------|-6---------------6------|
D|--------10----------10--|--------7-----------7---|
A|-----10----10-----------|-----7-----7------------|
E|-8--8--8--8--8--8--8-8--|-5--5--5--5--5--5--5--5-|


CORO:
    C     D              G
E|--3--|--5--|--------------3-----------|
B|--5--|--7--|--------------------------|
G|--5--|--7--|--4---------------4-------|
D|--5--|--7--|---------5-----------5----|
A|--3--|--5--|------5-----5-------------|
E|--X--|--X--|--3--3--3--3--3--3--3--3--|


             D                        Am
E|-----------------3--------------|-------------3----------|
B|--------------------------------|------------------------|
G|-11--------------------11-------|-3---------------3------|
D|-----------12--------------12---|--------7-----------7---|
A|------ 12------12---------------|-----7-----7------------|
E|-10--10--10--10--10--10--10--10-|-3--3--3--3--3--3--3--3-|

          C
E|-------------7----------|
B|-5--------------7-------|
G|--------5---------------|
D|-----5-----5--------7---|
A|-3--3--3--3--3--3--3--3-|
E|------------------------|

SE REPITE EL INTRO 2 VECES

Y AHORA AL FINAL DE LA CANCION DONDE DICE ?A MI JARDIN VUELVE A VENIR?
ES DE LA SIGUIENTE FORMA:
          C   C/A   G
E|-------------3-----3--|
B|-5-----------5-----3--|
G|--------5----5-----4--|
D|-----5-------5-----5--|
A|-3--3--3--3--------5--|
E|-------------5-----3--|


ACORDES USADOS:
   D   Am    C  C7y9m   G     Em     B      C*     A
E|-3--| -3-| -5-| -7-|   |-3-|  |-7-|  |-7-|  |-9--|  |-5-|
B|-3--| -3-| -5-| -5-|   |-3-|  |-8-|  |-7-|  |-9--|  |-5-|
G|-11-| -5-| -5-| -7-|   |-4-|  |-9-|  |-8-|  |-10-|  |-6-|
D|-12-| -7-| -5-| -5-|   |-5-|  |-9-|  |-9-|  |-11-|  |-7-|
A|-12-| -7-| -3-| -3-|   |-5-|  |-7-|  |-9-|  |-11-|  |-7-|
E|-10-| -3-| -x-| -x-|   |-3-|  |-x-|  |-7-|  |-9--|  |-5-|

Espero que les haya gustado cualquier duda me envían
un msj a mi correo ze_u_girdor@
SALUDOS A LOS MUSICOS DE LA IGLESIA JEHOVA-NISI LOS GUAYOS
 Y A LOS COMPAÑEROS DE LA UNIVERSIDAD DE CARABOBO CHAO NOS VEMOSSS?..
Suggest correction
Give kudos to tab author, rate the tab!
1 2 3 4 5
comments
print report bad tab
guest
You may want to rate the tab now too:
select rating
Wanna post a correction for this tab? Suggest correction