Oops, an error
Loading. Please wait.

Soy Libre De Aflicción Tab

version 1
version 1

Whole song

85 views 1 this week
no commentswrite comment
1 2 3 4 5
3 more votes to show rating
add to favorites
launch autoscroll
font size
0
reset
how to read this tab
guitar tuner
Autoscroll
slow
fast
+/-
esc
set tempo
stop
Help us to improve Ultimate-Guitar.com Take our survey!
×
Bien estos son los Intros de la canción Libre de Aflicción, están muy
fáciles así q ahí les va:

Intro I:

E ------------------------------------------------------------
A ------------------------------------------------------------
D ------9------------------------------------7/9--------------
G --------7-9-7-6--------------------7h9-7h9-----7-----9-7/9--
B --8-7-----------8/10-8-10h12-10h12---------------8-7--------
E ------------------------------------------------------------

E ------------------------------------------------------------
A ------------------------------------------------------------
D --------------------9---------------------------------------
G ------------------9---7----------------9-7/9----------------
B --8-10-10/12-10-8-------8/12-10--7-8-7-------8-10-10/12-10--
E ------------------------------------------------------------

E ------------------------------------------------------------
A ------------------------------------------------------------
D -----------------------14-----------------------------------
G --12-11-12-------14b16----12--------------------------------
B -----------12-13--------------------12----10/12-------10/12-
E ------------------------------10/12----10-------10h12-10/12-

Estrofa: Em - //G - A// 3 veces|
         C - B7                |2 veces todo

Coro: Em - A - C - B7
      Em - A - C - D - Em.  Espero q se sepan la canción OK!!!

Después q termina la rola de viene esto:

Intro II:

E -------------------------|---------------------------10-----
A -10-7-7-10p7-7h10-7-10p7-|-10-7-7-10p7-7h10-----10-7----7---
D -------------------------|------------------9-7-------------
G -------------------------|----------------------------------
B -------------------------|----------------------------------
E -------------------------|----------------------------------


OK. Sorry porq todavía no saco bien el solo pero lo voy a tratar de
pasar, Dios los bendiga y los libre de las Aflicciones, saludos al
Colegio Cristiano Elliot de Trujillo y a la Iglesia Bautista Luz del
Mundo - Salaverry.
Bye Dtb!!!!!!!
Suggest correction
Give kudos to tab author, rate the tab!
1 2 3 4 5
comments
print report bad tab
guest
You may want to rate the tab now too:
select rating
Wanna post a correction for this tab? Suggest correction