Oops, an error
Loading. Please wait.

Soy Libre De Aflicción Bass

version 1
version 1

Whole song

13 views 1 this week
no commentswrite comment
1 2 3 4 5
3 more votes to show rating
add to favorites
launch autoscroll
font size
0
reset
guitar tuner
Autoscroll
slow
fast
+/-
esc
set tempo
stop
En la cancion no hay bajo pero estas son algunas notas que puedes
tocar en el bajo

Intro en el solo de guitarra:

G---------------------------------------------------------
D----------------------------------------------------------
A-----------------3--3-2---5-6-----------------------------
E-3-2-0----3-5-----------------0---0-2-3-5---5--0-0-2-3-5?


G---------------------------------------------------------
D---------------------------------------------------------
A----------------------------3---3-3-3-3-1---1-1-1-1-1----
E-5-0-2-3-5--5-5-5-5-5-5-5-5------------------------------

Verso

G---------------------------------------------------------
D---------------------------------------------------------
A----------------------------------------------3-3--3-2---
E-0--3--3-5-3-5--0-0--3---3-5-3-5-0-0--3-5-353------------


G---------------------------------------------------------
D-------0-00----------------------------------------------
A-2-2-2---------------------------------------------------
E---------------------------------------------------------

Luego el coro es:

G---------------------------------------------------------
D---------------------------------------------------------
A--------------0-0-2-3---3-3-3-2--------------------00005-
E-0--0-2-3-5-----------------------3-2-0---0-2-3-5--------

Cualquier comentario o sugerencia porfavor mandenmelo a
aldric_lopez@
Suggest correction
Give kudos to tab author, rate the tab!
1 2 3 4 5
comments
print report bad tab
guest
You may want to rate the tab now too:
select rating
Wanna post a correction for this tab? Suggest correction