Oops, an error
Loading. Please wait.

Soy Libre De Aflicción Bass Tab

version 2
version 2

Whole song

4 views 1 this week
no commentswrite comment
1 2 3 4 5
3 more votes to show rating
add to favorites
launch autoscroll
font size
0
reset
guitar tuner
×
Best way to learn
"Soy Libre De Aflicción"
Autoscroll
slow
fast
+/-
esc
set tempo
stop
Agrego algo q la anterior persona dijo....aunque en esta canción
no haya un bajo definido (pues los q saben de la historia d JAR)
sabrán q no hubo bajo fijo, pero las notas q publico están mal...

Yo como bajista les presento una opción, q pueden tomarla, dejarla,
modificarla, etc.


Intro

Primero rasguea solo la guitar acustic
Luego entras con esto

G:-------------|--------------|-------------|-------------
D:---2---------|--------------|-------------|-------------
A:-------------|--------------|-----3-------|-------------
E:-------------|--------------|-----------?-|-------------

Ya cuando entran todos los instrumentos

G:------------|--------2-----|-------------|-------4---------
D:-------2----|------2---2---|-------------|-----4---4------(x2)
A:-----2---2--|-0-0-------0--|-3--3--3--3--|-2-2-------2?----
E:-0-0--------|--------------|-------------|-------------7s0-

Estrofa

Primero solo guitarra (1 tiempo)

G:-------------|--------------|-------------|-------------
D:-------------|--------------|-------------|-------------
A:-------------|--------------|-------------|-------------
E:-0-0-0-------|-5-3-5-3-5----|--0-0-0------|-5-3-5-3-5----

G:-------------|--------------|-------------|-------------
D:-------------|--------------|-------------|-------------
A:-------------|--------------|--3-3-3------|--2-2-2------
E:-0-0-0-------|-5-3-5-3-5----|-----------?-|-------------

G:-------------|--------------|-------------|-------------
D:-------------|--------------|-------------|-------------
A:-5-5-5---5s0-|--------------|-------------|-------------
E:-------------|--------------|-----------?-|-------------

Coro

G:-------------|------2------|-------------|------------
D:------2------|----2---2----|---5-3-------|------------
A:----2---2----|-0--------0--|-3-----3-3---|-2-2-2-2----
E:--0-------0--|-------------|-----------?-|------------

G:-------------|-----2-------|-------------|-------------
D:------2------|---2---2-----|-------------|-------------
A:----2---2----|-0--------0--|-5-5-5-5-5---|-------------
E:-0--------0--|-------------|-----------?-|-0-0-0-0-----

G:-------------|------2------|------5------|-------------
D:-----2-------|---2---2-----|----5---5----|-------------
A:---2---2-----|-0-------0---|-3-------3---|--2-2-2-2----
E:-0-------0---|-------------|-----------?-|-------------

G:-------------|-----2-------|-------------|-------------
D:-----2-------|---2---2-----|-------------|-------------
A:---2---2-----|-0-------0---|--5----------|-------------
E:-0-------0---|-------------|-----------?-|-------------

Antes de entrar a la estrofa

G:----------|-----------|-----------|--------------14-----------
D:-2---2----|-----------|-2---2-----|---7--------14--14---------
A:---2---2--|--0---0----|----2---2--|----------12------12-?12s0-
E:----------|----0---0--|-----------|-5---5-5-------------------

Estrofa
Coro

Solo

G:---------------|----------------|---------------|-------------
D:---------------|----------------|---------------|-------------
A:---------------|----------------|-3-3-3---------|-2-2-2-------
E:-0-0-0---------|-5-5-5----------|-----------?---|-------------

G:----------------|---------------|-----5---------|-------------
D:-----2----------|-----7---------|---5---5-------|-----4-------
A:---2---2--------|---7---7-------|-3-------3-----|-2-------2---
E:-0-------0------|-5-------5-----|-----------?---|-------------

G:----------------|---------------|---------------|-------------
D:----------------|---------------|---------------|-------------
A:----------------|--0-0-0--------|--3-3-3--------|-2-2-2-------
E:-0-0-0----------|---------------|------------?--|-------------

G:----------------|---------------|---------------|------------
D:----------------|---------------|---------------|------------
A:----------------|---------------|-3-3-3---------|-2-2-2------
E:-0-0-0----------|-5-5-5---------|-------------?-|------------

G:----------------|---------------|---------------|------------
D:-5-5-5-5--------|---------------|---------------|------------
A:----------------|---------------|---------------|------------
E:-----------10s0-|---------------|-------------?-|------------

Coro (x3)
Final

G:-------------|--------------|-------------|-------------
D:-------------|--------------|-------------|------------- (x4)
A:-------------|--------------|--5-5--------|-------------
E:-0-0---------|-5-5----------|-----------?-|-0-0---------

G:------------------|--------------|-------------|-------------
D:------------------|--------------|-------------|-------------
A:-7-7---7-7---7s0--|--------------|-------------|-------------
E:------------------|--------------|-----------?-|-------------


Un saludo para el ministerio mas grande de adolescentes de Lima,
ADHAC y pa la macro Sordera, gracias x su amistad...blessings
Suggest correction
Give kudos to tab author, rate the tab!
1 2 3 4 5
comments
print report bad tab
guest
You may want to rate the tab now too:
select rating
Wanna post a correction for this tab? Suggest correction