Oops, an error
Loading. Please wait.

Soy Libre De Aflicción Tab

version 2
version 2

Whole song

37 views 1 this week
no commentswrite comment
1 2 3 4 5
3 more votes to show rating
add to favorites
launch autoscroll
font size
0
reset
how to read this tab
guitar tuner
Autoscroll
slow
fast
+/-
esc
set tempo
stop
SOY LIBRE DE AFLICCION  QUE DIO LES BENDIGA
TRASCRIPCCION DE RUBEN.P.T.

               E          S    C             B      E        H   A
E------------------------------------------------------------------/
B----8----------------10-8-12-12-10-8----------8---------8-10-12-10-/
G-11---11----7-9-7---------------------99----7---11-9--7----------/
E----------9-------11---------------------9-----------------------/
A------------------------------------------------------------------/
E------------------------------------------------------------------/


     E            H   A[H]                 E   H         H     H
E------------------------------------------------------------------/
B----8-------8--10-12-10-12-10---8----8-----------8----10-12-10-12-/
G------9---7-------------------9---11---11-9--7-9---9--------------/
D--------9---------------------------------------------------------/
A-10---------------------------------------------------------------/
E------------------------------------------------------------------/


                 C                  B                     E 
E-------------8--------------12----10--10-10-------10-12-12--------/
B-10-----8-12---12-10-8----8----12-----------12-12-----------------/
G------9-----------------9-----------------------------------------/
E------------------------------------------------------------------/
A------------------------------------------------------------------/
E------------------------------------------------------------------/


S=SLAID
H=HAMMER ONS
P=PULL OFFS


--------------------------------------------------------------------/
Suggest correction
Give kudos to tab author, rate the tab!
1 2 3 4 5
comments
print report bad tab
guest
Wanna post a correction for this tab? Suggest correction