Oops, an error
Loading. Please wait.

Soy Nueva Creatura Bass

83 views 1 this week
no commentswrite comment
1 2 3 4 5
3 more votes to show rating
add to favorites
launch autoscroll
font size
0
reset
guitar tuner
×
Best way to learn
"Soy Nueva Creatura"
Autoscroll
slow
fast
+/-
esc
set tempo
stop
1Hola esta rola es muy difícil en el bajo no tengo todos los adornos pero con lo que 
les de con eso tienen ay les va 

Intro 
                                               2 veces  
E   /-----------------------/-------------------------------------/
A   /----------------------/-------------------------------------/
D   /--11?13h------13--13--/--11---13h-------13h?-----11h-----13-/
G   /----------11----------/-------------11----------------------/

Depuse de eso va un  adorno tienes que oírlo para que saques los tiempos 

E   /----------------------------------/
A   /--11-------11e--13--4--2--4-------/
D   /-------13-------------------------/ 
G   /----------------------------------/

Tienes que oírlo para sacarlo 

Esta  es la parte del intro con la música  
3 compases    o cuatro veces                    en el cuarto compás va esto                          
E   /--4--4--4--4--------2-----/                E   /--4--4---------2?2e--4-----------------/
A   /---------------4--6-----4--/               A   /---------4--6--------------4--4?1e--2--/
D   /----------------------------/              D   /---------------------------------------/
G   /----------------------------/              G   /---------------------------------------/
O bien si  no te sale dalo igual que las 3 figuras antes 

Verso  
4  compases en  G#m                      C#m         2 compases            Eb  1 campas 
E   /--4-----4-----4--2--4-------------/--4-----4-----4---2--4----------/------------------------------------/
A   /----------------------------------/--------------------------------/--6----6-----6---4----6------6------/
D   /-----6-----6--------------------6-/------6-----6---------------6---/------------------------------------/
G   /----------------------------------/--------------------------------/-----8-----8----------------8-------/
 
 Se repite  2 ves , en la segunda ves  después  de cada figura  lleva un adorno es censillo 
metes en la cuerda de D   /--4--6----/ des pues de la figura  lo metes, no lo puse porque 
no estoy seguro pero lo puedes meter se oye bien   

Coro 

E   /--4--4--------------------------/-------------------4----/--0--4--4-----------------------------4---2---0-/
A   /---------2--4--4--5--6----------/------------4--2--------/-------------4--3--2-----4-------4-2------------/
D   /---------------------------4----/--6--4--1---------------/----------------------4-----2--1----------------/
G   /--------------------------------/------------------------/------------------------------------------------/


E   /-------------------------/------4-----4--3--0----/-------------------------------------------/
A   /--4--4-------------------/--4-----2--------------/--6-6--8--10-10-----4-5-6--6----6---------/
D   /---------2--4--5--6------/-----------------------/------------------8-----------------------/
G   /---------------------4---/-----------------------/-----------------------------------8------/

Es todo los adornos no los tengo pero luego los pongo  lo demás son puros adornos  cosa que si quieren lo pueden 
meter pues alguna duda o aclaración mándenme un mail ...ok
Adiós
Suggest correction
Give kudos to tab author, rate the tab!
1 2 3 4 5
comments
print report bad tab
guest
You may want to rate the tab now too:
select rating
Wanna post a correction for this tab? Suggest correction