Oops, an error
Loading. Please wait.

Soy Nueva Creatura Tab

23 views 1 this week
no commentswrite comment
1 2 3 4 5
3 more votes to show rating
add to favorites
launch autoscroll
font size
0
reset
how to read this tab
guitar tuner
×
Best way to learn
"Soy Nueva Creatura"
Autoscroll
slow
fast
+/-
esc
set tempo
stop
Guitarra Primera

     Con wah wah y enmudeciendo con la palma de la mano
     S                                                  E  X E  E  E.
E||-------------------------------------------------------------------
B||-------------------------------------------------------------------
G||----------------------------------------------------------------5--
D||--5h-------------------------------------------------7--L-7--5-----
A||-------------------------------------------------------------------
E||-------------------------------------------------------------------


  S  E  X E  E  E  T. S S S E.     S  E  X E  E  E.  E  E  S. X
--------------------------------|-------------------------------|
--------------------------------|-------------------------------|
----------------------5-7-5-L---|----------------5--------------|
--5h-7--L-7--5--------5-7-5-L---|--5h-7--L-7--5------7--7--5--L-|
--------------------------------|-------------------------------|
--------------------------------|-------------------------------|


  S  E  X E  E  E  T. S S S E.     S  E  X E  E  E.  E  E  S. X
--------------------------------|-------------------------------|
--------------------------------|-------------------------------|
----------------------5-7-5-L---|----------------5--------------|
--5h-7--L-7--5--------5-7-5-L---|--5h-7--L-7--5------7--7--5--L-|
--------------------------------|-------------------------------|
--------------------------------|-------------------------------|


  S  E  X E  E  E  T. S S S E.     S  E  X E  E  E.  E  E  S. X
--------------------------------|-------------------------------|
--------------------------------|-------------------------------|
----------------------5-7-5-L---|----------------5--------------|
--5h-7--L-7--5--------5-7-5-L---|--5h-7--L-7--5------7--7--5--L-|
--------------------------------|-------------------------------|
--------------------------------|-------------------------------|


  S  E  X E  E  E  T. S S S E.     S  E  X E  E  E.  E  E  S. X
--------------------------------|-------------------------------|
--------------------------------|-------------------------------|
----------------------5-7-5-L---|----------------5--------------|
--5h-7--L-7--5--------5-7-5-L---|--5h-7--L-7--5------7--7--5--L-|
--------------------------------|-------------------------------|
--------------------------------|-------------------------------|


  S  E  X E  E  H        T.    S  E  X E  E  E.  E  E  S. X
----------------------------|-------------------------------|
----------------------------|-------------------------------|
----------------------------|----------------5--------------|
--5h-7--L-7--5--------------|--5h-7--L-7--5------7--7--5--L-|
----------------------------|-------------------------------|
----------------------------|-------------------------------|


  S  E  X E  E  H        T.    S  E  X E  E  E.  E  E  S. X
----------------------------|-------------------------------|
----------------------------|----------------5--------------|
----------------------------|--5h-7--L-7--5------7--7--5----|
--5h-7--L-7--5--------------|-----------------------------L-|
----------------------------|-------------------------------|
----------------------------|-------------------------------|


                               Esus2
                               ^
  S  E  X E  E  H        T.    W                    W
----------------------------|--7~----------------|--L----------------|
----------------------------|--7~----------------|--L----------------|
--5h-7--L-7--5--------------|--9~----------------|--L----------------|
----------------------------|--9~----------------|--L----------------|
----------------------------|--7~----------------|--L----------------|
----------------------------|--7~----------------|--L----------------|


Duracion
---------------
W - redonda
H - blanca
Q - negra
E - corchea
S - semicorchea
T - fusa
X - semifusa
. - puntillo
Suggest correction
Give kudos to tab author, rate the tab!
1 2 3 4 5
comments
print report bad tab
guest
You may want to rate the tab now too:
select rating
Wanna post a correction for this tab? Suggest correction