Oops, an error
Loading. Please wait.

Soy Nueva Criatura Bass Tab

version 1
version 1

Whole song

Interactive

212 views 1 this week
no commentswrite comment
1 2 3 4 5
3 more votes to show rating
add to favorites
launch autoscroll
font size
0
reset
guitar tuner
×
Best way to learn
"Soy Nueva Criatura"
Autoscroll
slow
fast
+/-
esc
set tempo
stop
Intro:

G--16/-|-----11--13--11--13-|--------11--13--11--13-|
D--17/-|--13----------------|--11h13----------------|
A------|--------------------|-----------------------|
E------|--------------------|-----------------------|

G-----11--13--11--13-|--------11--13--11--13-|
D--13----------------|--11h13----------------|
A--------------------|-----------------------|
E--------------------|-----------------------|

G---------11/-|
D--11h13------|
A-------------|
E-------------|

G------------------------------|
D-------4--6--4--6-------4-----|
A-----6-------------4h6----66--|
E--4---------------------------|

G---------------------------------|
D--------4--6--4--6------4---4h-6-|
A-----6-------------4h6---6-------|
E--4------------------------------|

G-----------------------------|
D-------4--6--4--6-------4----|
A-----6-------------4h6----66-|
E--4--------------------------|

G------------------------------|
D--------4--6--4--6------4---6-|
A-----6-------------4h6---6----|
E--4---------------------------|


Verso:

   G#
G--------------------|-----------------------|
D------6p4-----------|-----6p4------------4--|
A----------------4h6-|----------------4h6----|
E--4-4-----4-2-4-----|-4-4-----3-2-3---------|

   G#
G--------------------|-----------------------|
D------6p4-----------|-----6p4------------4h6|
A----------------4h6-|----------------4h6----|
E--4-4-----4-2-4-----|-4-4-----3-2-3---------|

   C#
G------6p4----------------6p4---------------|
D----------------4h6-----------------4h6----|
A--4-4-----4-2-4------4-4-----3-2-3---------|
E-------------------------------------------|

   D#
G------8p6---------------|
D----------------6h8-----|
A--6-6-----6-4-6-------6-|
E------------------------|

Repite Verso.

Coro:

perdona, no pude terminar, prometo terminar.
Dios te Bendiga
Suggest correction
Give kudos to tab author, rate the tab!
1 2 3 4 5
comments
print report bad tab
guest
You may want to rate the tab now too:
select rating
Wanna post a correction for this tab? Suggest correction