Oops, an error
Loading. Please wait.

Soy Una Saeta Bass Tab

28 views 1 this week
no commentswrite comment
1 2 3 4 5
3 more votes to show rating
add to favorites
launch autoscroll
font size
0
reset
guitar tuner
Autoscroll
slow
fast
+/-
esc
set tempo
stop
Help us to improve Ultimate-Guitar.com Take our survey!
×
Esta alabanza me costó sacar las figuras que tiene y no todas son iguales; ya que 
el bajo en algunas partes de la canción
No lo pude distinguir con algo de claridad, pero aquí está la versión que toco y 
que les sea de bendición....

Clave:    :: s = Slide;  = Slap; h = Hammer  on/pull off ::

::Intro::

E |---3--5---3--3--5----------------------------3--5---3--3--5---------------------------------
A |-----------------------3--5----3--3--5---------------------------3--5---3--3?5--------------
D |--------------------------------------------------------------------------------------------
G |--------------------------------------------------------------------------------------------
B |--------------------------------------------------------------------------------------------


E |---3--5---3--3--5----------------------------3--5---3--3--5------------------------------------
A |-----------------------3--5----3--3--5---------------------------3--5--------------------------
D |-----------------------------------------------------------------------------------------------
G |----------------------------------------------------------------------------5--5---6--6--7--7--
B |-----------------------------------------------------------------------------------------------


::Verso::

E |---3--5---3--3--5----------------------------3--5---3--3--5---------------------------------
A |-----------------------3--5----3--3--5---------------------------3--5---3--3?5--------------
D |--------------------------------------------------------------------------------------------
G |--------------------------------------------------------------------------------------------
B |--------------------------------------------------------------------------------------------


E |---3--5---3--3--5----------------------------3--5---3--3--5---------------------------------
A |-----------------------3--5----3--3--5---------------------------3--5---3--3?5--------------
D |--------------------------------------------------------------------------------------------
G |--------------------------------------------------------------------------------------------
B |--------------------------------------------------------------------------------------------


::Pre-Coro::

E |--------------------------------7--------------3--3---3--3----------5--5------------------5--5---------------
A |--6--6---3h5---3--3---3--3---6---------3--3------------------------------------------------------------------
D |------------------------------------------------------------5-------------6s7--6?7s5------------6s7---6?7s5--
G |-------------------------------------------------------------------------------------------------------------
B |-------------------------------------------------------------------------------------------------------------


E |----------------------------------7---------------------------3--3----3--3--3--3--------3--3--
A |--6--6---3h5---3--3---3--3---6---------3--3---3--3--3-----------------------------------------
D |----------------------------------------------------------------------------------5-----------
G |----------------------------------------------------------------------------------------------
B |----------------------------------------------------------------------------------------------


::Coro::

E |--17s5--5--------------------5---3h5--------------------------------------------
A |--------------6h7---5--3------------------5--5---3h5----7--7---5---7------------
D |--------------------------------------------------------------------------------
G |--------------------------------------------------------------------------------
B |--------------------------------------------------------------------------------


E |-----------------------------------------------------------------------------
A |----5---5-----------------------------8---8----------------------------------
D |-----------------------------------------------------------------------------
G |--------------7--9----9h7h9-------------------10--9---9h7h9------------------
B |-----------------------------------------------------------------------------


                  Espero logren entenderle y poder tocarla; dudas y comentarios ya saben....


                    G O D  B L E S S  Y O U  ! ! !
Suggest correction
Give kudos to tab author, rate the tab!
1 2 3 4 5
comments
print report bad tab
guest
You may want to rate the tab now too:
select rating
Wanna post a correction for this tab? Suggest correction