Oops, an error
Loading. Please wait.

Sublime Poesia Tab

67 views 1 this week
no commentswrite comment
1 2 3 4 5
3 more votes to show rating
add to favorites
launch autoscroll
font size
0
reset
how to read this tab
guitar tuner
×
Best way to learn
"Sublime Poesia"
Autoscroll
slow
fast
+/-
esc
set tempo
stop
Sublime poesía

(Colocar capo en el 1°traste)

Intro:

B-------8s10-7--------------8-7-------------8s10--7----------------------------
G-7-7-9--------7---7-------7----9-7--7-7---9--------7--7---------8s11-8-7-7-6-
D----------------7---7-7s9----------------------------7---7-7s9-7-------------

   D     A/C#      Bm          F#m                G
La luz de sol se opaca al compararse con tu resplandor
   D    A/C#        Bm         F#m                G
Tu gran poder y el brillo de mil soles no podrá igualar
  Em       Bm          F#m          G           A      F#7
Tu perfección, la fuente más profunda de mi inspiración

Puente:
E------------------7-7-7-9-6---9-10-7
B-8s10-10-10-8-8-7------8----7-------


Coro:
Bm    G            D         A
Nada en la tierra se comparara
Bm    G           D          A
Con la belleza de tu majestad
Bm     F#m     D     Bm       A         G
Jesús mi amigo fiel, no hay nadie como tu


D        A/C#   Bm             F#m                    G
No hay expresión que logre articular tu gloria tu esplendor
D       A/C#     Bm            F#m           G
Mi adoración intenta con palabras describir tu amor
  Em          Bm       F#m      G     A  F#7
Eres Jesús, sublime poesía para mi canción

Puente:
E------------------7-7-7-9-6---9-10-7
B-8s10-10-10-8-8-7------8----7-------


Outro:
B-------8s10-7---------------------
G---7-9--------7-6-------6-7-7s9-
D-9----------------9-8-9------------

Final:

B-------8s10-7---------------8-7-------------8s10--7---------------
G-7-7--9------7---7-------7------9-7--7-7---9-------7--------------
D---------------7---7s9-------------------------------7--7s9-------

espero les guste.............
Suggest correction
Give kudos to tab author, rate the tab!
1 2 3 4 5
comments
print report bad tab
guest
You may want to rate the tab now too:
select rating
Wanna post a correction for this tab? Suggest correction