Oops, an error
Loading. Please wait.

Te Dare Lo Mejor Tab

59 views 1 this week
no commentswrite comment
1 2 3 4 5
3 more votes to show rating
add to favorites
launch autoscroll
font size
0
reset
how to read this tab
guitar tuner
Autoscroll
slow
fast
+/-
esc
set tempo
stop
Help us to improve Ultimate-Guitar.com Take our survey!
×
Aki esta la intro de te daré lo mejor
posicionamos con esta cejilla y después ejecutamos las siguientes notas
  Cejilla
E|-----4-----4---------4----4---------4----4--------4------------------|
B|-----4--------5-5h7----------5-5h7----------5-5h7----5h7--5----5-----|
G|-----4------------------------------------------------------4h6------|
D|-----4------------------7-------------6------------------------------|
A|-----4---------------------------------------------------------------|
E|-----4---------------------------------------------------------------|
Se ejecuta todo 2 veces
Recuerden dejar la cejilla siempre y ejecutando las notas al mismo tiempo


La segunda ?intro? para el segundo verso es similar solo cambia el final

  Cejilla
E|-----4-----4-------4----4--------4----4--------4---------------|
B|-----4-------5-5h7---------5-5h7---------5-5h7----5?5h7-5------|
G|-----4----------------------------------------------------4h6--|
D|-----4----------------7-------------6--------------------------|
A|-----4---------------------------------------------------------|
E|-----4---------------------------------------------------------|


Y el solo

E|-------9-9--11-12-----11--12------9-9-7--------21--19--19\17--17--16------------------------|
B|---5/9-------------10---------9\5-------15/19--------------------------19-17-19/21-19-------|
G|--------------------------------------------------------------------------------------------|
D|--------------------------------------------------------------------------------------------|
A|--------------------------------------------------------------------------------------------|
E|--------------------------------------------------------------------------------------------|

Es todo y usenlo para gran bendicion

Hiram Alonso
ya saben !! al mail!!!!
Saludos a la banda torre fuerte!!!!!!!!
Suggest correction
Give kudos to tab author, rate the tab!
1 2 3 4 5
comments
print report bad tab
guest
You may want to rate the tab now too:
select rating
Wanna post a correction for this tab? Suggest correction