Oops, an error
Loading. Please wait.

Te Dare Lo Mejor Bass Tab

version 1
version 1

Whole song

32 views 1 this week
no commentswrite comment
1 2 3 4 5
3 more votes to show rating
add to favorites
launch autoscroll
font size
0
reset
guitar tuner
Autoscroll
slow
fast
+/-
esc
set tempo
stop
Help us to improve Ultimate-Guitar.com Take our survey!
×
¡Hola! Otra vez, esta es mi 3er trascripción, esta alabanza me gusta mucho porque tenemos que darle lo mejor
a Dios y nos hace reflexionar si en verdad lo hacemos, las figuras son fáciles pero tienes que oirla.

Intro:
B-----------------------------------------|
E--0-0----0-0----0-0----0-0---3--s--7--5--|
A-----------------------------------------|
D-----------------------------------------|
G-----------------------------------------|
2 veces

Estrofa
B-----------------------------|-----------------------------|
E--0--0---5--5---0--0---------|--0--0---5--5---0--0---------|
A------------------------2-2--|------------------------2-2--|
D-----------------------------|-----------------------------|
G-----------------------------|-----------------------------|
Te entregaré...
B------------------------------|
E--2-2-------------------------|
A--------4-4----0-0----2-2-----|
D------------------------------|
G------------------------------|

Coro:
B---------------------------------------------------------------|--------------------------------------------|
E-------------5-5--5-5----------------------------7-9-----------|---------------5-5---5-5----7-7---7-7---7-7-|
A--4-4---4-4------------7---7-9--------------7--9------7-9--7---|--4-4---4-4---------------------------------|
D-------------------------------7-9---7-9-----------------------|--------------------------------------------|
G---------------------------------------------------------------|--------------------------------------------|
Será mucho más...
B---------------------------------------------------------------|
E-4--4-4--4--4-4------------5-5--5-5----2-2--2-2----------------|
A-----------------4-4--4-4-------------------------2-2--2-2-----|
D---------------------------------------------------------------|
G---------------------------------------------------------------|

-Intro 1 vez
-La segunda vez de la estrofa va esto
B------------------------------------------|-----------------------------|
E--0--0---5--5---0--0----------------------|--0--0---5--5---0--0---------|
A-----------------------2--2-s-14-s-2------|------------------------2-2--|
D------------------------------------------|-----------------------------|
G------------------------------------------|-----------------------------|
-Coro 2 veces
-Solo:
B--------------------------------------------|
E-----------5---------4------4---------------|
A--5--7--8-------7-8-----7-8----4--14-14-14--|
D--------------------------------------------|
G--------------------------------------------|
Luego.
Te entregaré...
B--------------------------------|--------------------|
E--2-2---------------------------|---5--5-5-10--s--1--|
A--------4-4----0--13-14--2-2----|--------------------|
D--------------------------------|--------------------|
G--------------------------------|--------------------|
Coro 2 veces.
Luego.

Te daré lo mejor de mí...
B---------------------------|-----------------------------------|
E--0--0-----5--5----0--0----|--0--0-----5--5----0--0---13--12---|
A---------------------------|-----------------------------------|
D---------------------------|-----------------------------------|
G---------------------------|-----------------------------------|

B---------------------------|-----------------|
E--0--0-----5--5----0--0----|-----------------|
A---------------------------|--4---2---0------|
D---------------------------|-----------------|
G---------------------------|-----------------|

Bueno me despido, espero que les haya servido para adorar al Señor
Si no entienden algo o no la pueden leer mándame un mail.
¡BENDICIONES!
Suggest correction
Give kudos to tab author, rate the tab!
1 2 3 4 5
comments
print report bad tab
guest
You may want to rate the tab now too:
select rating
Wanna post a correction for this tab? Suggest correction