Oops, an error
Loading. Please wait.

Te Dare Lo Mejor Bass Tab

version 2
version 2

Whole song

56 views 1 this week
no commentswrite comment
1 2 3 4 5
3 more votes to show rating
add to favorites
launch autoscroll
font size
0
reset
guitar tuner
Autoscroll
slow
fast
+/-
esc
set tempo
stop
Help us to improve Ultimate-Guitar.com Take our survey!
×
intro:
G:-------------------
D:-2s-4-2-4-2s-4-2-4-
A:-------------------
E:-------------------

  TRAEMOS HOY ANTE TU ALTAR NUESTRAS CORONAS
G:--------------------------
D:2---2--------2---2--------
A:-------0---0--------2-2-2-
E:--------------------------

QUEREMOS DARTE LO MEJOR DE NUESTRAS VIDAS

G:--------------------------
D:2---2--------2---2--------
A:-------0---0--------2-2-2-
E:--------------------------

TE ENTREGARE MI AMOR ENTERO LOS SUEÑOS QUE LOGRE ALCANZAR

G:--------------------------
D:-3-3----------------------
A:-----3-3-3-0-0-0-2-2-2-2s-
E:--------------------------

(CORO)
TE DARE LO MEJOR DE MI VIDA

G:-------------------------
D:-------------------------
A:-3-3-3--0-0-0--2-2-2-----
E:-------------------------

TE DARE LO MEJOR CADA DIA
G:---------------------------
D:---------------------------
A:-3-3-3--0-0-0--2-2-2-------
E:---------------------------

SERA MUCHO MAS QUE UNA CANCION

G:-----------------------------
D:-----------------------------
A:-----------------4-4-4-4-4-4-
E:--4-4-4-4-4-4-4--------------

MI OBEDIENCIA ES MI MEJOR ADORACION

G:--------------------------------
D:--------------------------------
A:-0-0-0-0--------2-2-2-2-2-------
E:----------2-2-2-----------------

TRAEMOS HOY ANTE TU ALTAR NUESTRAS CORONAS

G:--------------------------
D:2---2--------2---2--------
A:-------0---0--------2-2-2-
E:--------------------------

QUEREMOS DARTE LO MEJOR DE NUESTRAS VIDAS

G:--------------------------
D:2---2--------2---2--------
A:-------0---0--------2-2-2-
E:--------------------------

DAREMOS SOLO LAS PRIMICIAS PUES TU MERECES LO MEJOR

G:--------------------------
D:-3-3----------------------
A:-----3-3-3-0-0-0-2-2-2-2s-
E:--------------------------

(coro)

TE DARE LO MEJOR DE MI

G:----------------------------
D:-2-2-2----------------------
A:-------0-0-0-2-2-2----------
E:----------------------------

TE DARE LO MEJOR DE MI

G:----------------------------
D:-2--------------------------
A:-------0-----2--------------
E:----------------------------

TE DARE LO MEJOR

G:----------
D:----------
A:4s--2s--0-
E:----------
Suggest correction
Give kudos to tab author, rate the tab!
1 2 3 4 5
comments
print report bad tab
guest
You may want to rate the tab now too:
select rating
Wanna post a correction for this tab? Suggest correction