Oops, an error
Loading. Please wait.

Te Dejo Ganar Tab

version 1
version 1

Whole song

377 views 1 this week
no commentswrite comment
1 2 3 4 5
3 more votes to show rating
add to favorites
launch autoscroll
font size
0
reset
how to read this tab
guitar tuner
Autoscroll
slow
fast
+/-
esc
set tempo
stop
Intro:

  G#               D#       Fm       C#     G#        D#           Fm
E|-------------------6--7--7s13--11------------------------------------------|
B|-13--14-13--11--9-----------------14-13---13-14-13--11----11-13----------11|
G|-------------------------------------------------------13-------10-12-13---|
   C#              D#         C#
E|--------------------------------|
B|---11-11-11-13----------------14|
G|---------------13-10--10t-13t---|           t=tremolo (repetir varias veces)


Verso 1:
                G#     D#   Fm
Ya no quiero luchar,

      C#          G#     D#   Fm
Ya no quiero pelear,

           C#      G#        D#
Hago a un lado las armas en las que

    C#        Fm      D#  A#m  E|3-3-3------|
confiaba y te dejo ganar,      B|------6-4-2|
                   E|-9----8---
                   Fm    C#    G#
Me ha vencido tu amor
E----6-----------4--13---11
     D#         Fm    C#    G#
Y tu buen corazón
E---9--------8|
      D#        Fm         C#        G#
He venido a rendirme a tus pies y decirte

              D#    A#m    C#
te doy el control   E|3-4-6-----9-8-6-4|
                    B|------6----------|


Coro:

G# D# A#m       C#        G#  D#
Vengo hasta la cruz a rendirme

A#m          C#      G#  D#
Si quieres hoy recibirme
                 E|-4-4----8--4
A#m       C#        G#            C#
Vengo a caer a tus pies y a decirte
E-8-6-6-----------6-4---3-4
  A#m            G#       Fm
Por siempre eres Tú mi Señor                    G#               D#       Fm
E-4-8------4-4--8---6-6--|---------------------|-------------------6--7--7s13
         C#         A#m         D#            B|-13--14-13--11--9------------
Hoy te entrego las riendas de mi corazón      G|-----------------------------
              C#     G#        D#           Fm     C#
        E|--11---------------------------------------------------------------|
        B|-----14-13---13-14-13--11----11-13----------11---11-11-11-13-------|
        G|--------------------------13-------10-12-13------------------13-10-|


Verso 2:
                G#    D#    Fm
Me cansé de pelear

    C#       G#    D#   Fm
Y tu amor evitar

        C#         G#        D#
Me di cuenta que pierdo si gano

        C#      Fm      D#  A#m E|15-15-15--------|
esta lucha contra la verdad     B|--------18-16-14|
                  E|-9----8----
                  Fm     C#     G#
Hasta aquí me alcanzó
E----6-----------4--13---11
   D#            Fm     C#      G#
Mi obstinada razón
E---9--------8|---8t--9t----8t-|
      D#      Fm       C#      G#
He borrado la raya que me separaba

              D#   A#m      C#
de Tú bendición    E|3-4-6-----9-8-6-4|
                   B|------6----------|


Coro:

G# D# A#m       C#        G#  D#
Vengo hasta la cruz a rendirme

A#m          C#      G#  D#
Si quieres hoy recibirme
                 E|-4-4----8--4
A#m       C#        G#            C#
Vengo a caer a tus pies y a decirte
E-8-6-6-----------6-4---3-4
  A#m            G#       Fm
Por siempre eres Tú mi Señor
E-4-8------4-4--8---6-6----8-9-8-6-4|
         C#         A#m     D#
Hoy te entrego las riendas


G# D# A#m       C#        G#  D#
Vengo hasta la cruz a rendirme

A#m          C#      G#  D#
Si quieres hoy recibirme
                 E|-4-4----8--4
A#m       C#        G#            C#
Vengo a caer a tus pies y a decirte
E-8-6-6-----------6-4---3-4
  A#m            G#       Fm
Por siempre eres Tú mi Señor                    G#               D#
E-4-8------4-4--8---6-6--|---------------------|-------------------6--7--
         C#         A#m         D#        G#  B|-13--14-13--11--9--------
Hoy te entrego las riendas de mi corazón      G|-------------------------

                         Fm       C#     G#        D#      C#         G#
                      E-7s13--11------------------------|-----------|-8t|
                      B----------14-13---13-14-13--11---|-----------|---|
                      G-------------------------------13|-----------|---|
                                                        de mi corazón


Paz. Sea para alabanza a Dios, Amén...

Canción sacada de:


GDLM
Axel Sk

E-Mail: danieluchuk@

Saludos desde Iglesia de Dios (7 Día). San Vicente, Misiones, Argentina
Suggest correction
Give kudos to tab author, rate the tab!
1 2 3 4 5
comments
print report bad tab
guest
Wanna post a correction for this tab? Suggest correction