Oops, an error
Loading. Please wait.

Te Dejo Ganar Tab

version 2
version 2

Whole song

424 views 6 this week
no commentswrite comment
1 2 3 4 5
3 more votes to show rating
add to favorites
launch autoscroll
font size
0
reset
how to read this tab
guitar tuner
Autoscroll
slow
fast
+/-
esc
set tempo
stop
Help us to improve Ultimate-Guitar.com Take our survey!
×
Capo
1st fret
29/Diciembre/2013/Domingo


¡Acordes Originales!
((Cilck en Calidad))


Capo 1er Traste

--Ensaya primero los Acordes--

   G  D/F# (Em)  A/C#  Bm7  G/B
1|-3---2----0-----0-----x----3---------
2|-0---3----0-----2-----3----0---------
3|-0---2----0-----0-----0----0---------
4|-0---x----2-----x-----4----x---------
5|-2---x----x-----4-----x----2---------
6|-3---2----0--------------------------

--(Em)-- En los Versos y Coro sólo se pisa la cuerda pero no se toca.

Intro:
   G        D/F#     Em     C    Am7
1|--------|--------|-------|0---|------------------------------
2|-0-----1--0------------0----3--1-----------------------------
3|-----0--------0-2--0-2------0--0-----------------------------
4|---0--------0------2-4---------x-----------------------------
5|--------------------------3----0-----------------------------
6|-3------|-2------|-0-----|----|------------------------------

   G        D/F#     Em     C     Am7         D  C    Ya no quiero...
1|---------|--------|------|-----|-----------|--|--------------
2|-0---0-1--0------------0-------------0------3--1-------------
3|-0---0-0--0---0-2--0-2--------0-2--2---0----0--0-------------
4|---0--------0------2-4----2-4---0--0-----2--4--2-------------
5|--------------------------------0-----------5--3-------------
6|-3-------|2-------|0-----|-----|-----------|--|--------------


luchar,                         ya no quiero pelear
   G            D      Em               C
1|-----3---3------2---------0---0---------0--------------------
2|-----0---0------3---------0---0---------1--------------------
3|---0---0---0------2-----0---0---0---------0------------------
4|--------------0-----(2)--------------------------------------
5|--------------------------------------3----------------------
6|-3-------------------0---------------------------------------

                          Hago a un lado las armas
   G            D      Em            C        G
1|-----3---3------2---------0---0------0----------3---3--------
2|-----0---0------3---------0---0------1----------0---0--------
3|---0---0---0------2-----0---0---0------0------0---0---0------
4|--------------0-----(2)--------------------------------------
5|-----------------------------------3-------------------------
6|-3-------------------0----------------------3----------------

en las que confiaba  y te  dejo ganar...                   Me ha vencido...
   D           C           A/C#     D                 Bm7 Am7
1|---2-------------0---0------0---------2---2----2--0----------
2|---3-------------1---1------1---------3---3----3--0--2---1---
3|-----2---------0---0---0------0-----2---2---2--2--0--0---0---
4|-0--------------------------------0------------0-----4---2---
5|-------------3------------4------------------------------0---
6|-------------------------------------------------------------

 tu amor                          y tu buen
      Em            C      G/B          D/F#
1|---------0---0------0--------3---3------2--------------------
2|---------0---0------1--------0---0------3--------------------
3|-------0---0---0------0----0---0---0------2------------------
4|---(2)-------------------------------------------------------
5|------------------3------2-----------------------------------
6|----0---------------------------------2----------------------

corazón.                         He venido a rendirme a tus
     Em            D      G            D         Em
1|--------0---0------0--------3---3------2------------0---0----
2|--------0---0------1--------0---0------3------------0---0----
3|------0---0---0------0----0---0---0------2--------0---0---0--
4|--(2)--------------------------------0--------(2)------------
5|-----------------3-------------------------------------------
6|---0--------------------3----------------------0-------------

 pies y decirte       te doy el control
   C       G/B          A/C#         D
1|---0---------3---3------0--------------2---2----2--3--5--0---
2|---1---------0---0------3--------------3---3----3--3--3--1---
3|-----0-----0---0---0------0----------2---2---2--2--3--3--0---
4|-----------------------------------0---------------------x---
5|-3-------2------------4----------------------------------0---
6|-------------------------------------------------------------

1|--9--7--5-----------
2|--------------------
3|--9--7--5-----------

--Coro--
Sólo cuando dice "re-ci-bir... me"
   C  B   Am
1|-x--x---x---
2|-x--x---x---
3|-0--0---0---
4|-x--x---x---
5|-3--2---0---
6|------------

  Ven...       go     hasta la cruz a rendir...      me
   G            D      Am7       C        G            D
1|-----3---3------2-------0---------0---------3---3------2------
2|-----0---0------3----------1---------1------0---0------3------
3|---0---0---0------2-----------------------0---0---0------2----
4|--------------0--------------------------------------0--------
5|---------------------0---------3------------------------------
6|-3--------------------------------------3---------------------

  SI quieres hoy RE--ci bir...      me     Vengo a ca-er a tus
   Am7        C   B   Am G            D      Am7       C
1|-----0---------------------3---3------2------0---------0------
2|--------1------------------0---0------3-----------1-------1---
3|--------------0---0------0---0---0------2---------------------
4|------------------------------------0-------------------------
5|-0----------3---2---0----------------------0---------3--------
6|-----------------------3--------------------------------------

  pies y a decirte por siempre eres tu mi
    Em        C          Am          D
1|-------0--0-----0--0-----0--0--------2--2---------------------
2|-------0--0-----1--1-----1--1--------3--3---------------------
3|--------------------------------------------------------------
4|-(2)-------------------------------0--------------------------
5|------------3----------0--------------------------------------
6|--0-----------------------------------------------------------

señor hoy te entrego las riendas de mi corazón
  Em             C        Am         D7
1|-----0----0------0--0-----0--0-----2--------------------------
2|-----0----0------1--1-----0--0-----1--------------------------
3|-----------------------------------2--------------------------
4|(2)--------------------------------0--------------------------
5|---------------3--------0-------------------------------------
6|-0------------------------------------------------------------

Intro:
   G        D/F#     Em     C    Am7
1|--------------------------0-----------------------------------
2|-0-----1--0------------0----3--1------------------------------
3|-----0--------0-2--0-2------0--0------------------------------
4|---0--------0------2-4---------x------------------------------
5|--------------------------3----0------------------------------
6|-3--------2--------0------------------------------------------

   G        D/F#     Em     C     Am7           Me cansé de...
1|--------------------------------------------------------------
2|-0---0-1--0------------0----0--------0------------------------
3|-0---0-0--0---0-2--0-2--------0--2-2---0----------------------
4|---0--------0------2-4----2------0-0-----2--------------------
5|--------------------------3--------0-----3--------------------
6|-3--------2--------0------------------------------------------

pelear                           y tu amor evitar
   G            D      Em               C
1|-----3---3------2---------0---0---------0---------------------
2|-----0---0------3---------0---0---------1---------------------
3|---0---0---0------2-----0---0---0---------0-------------------
4|--------------0-----(2)---------------------------------------
5|--------------------------------------3-----------------------
6|-3-------------------0----------------------------------------

                             me di cuenta que pierdo
   G            D      Em            C        G
1|-----3---3------2---------0---0------0----------3---3---------
2|-----0---0------3---------0---0------1----------0---0---------
3|---0---0---0------2-----0---0---0------0------0---0---0-------
4|--------------0-----(2)---------------------------------------
5|-----------------------------------3--------------------------
6|-3-------------------0----------------------3-----------------

si gano esta lucha     contra la verdad                     Hasta aquí me...
   D           C            A/C#    D                  Bm7 Am7
1|---2-------------0---0------0---------2---2----2--0-----------
2|---3-------------1---1------1---------3---3----3--0--2---1----
3|-----2---------0---0---0------0-----2---2---2--2--0--0---0----
4|-0--------------------------------0------------0-----4---2----
5|-------------3------------4------------------------------0----
6|--------------------------------------------------------------

alcanzo                        MI obstinada
      Em            C      G/B          D/F#
1|---------0---0------0--------3---3------2---------------------
2|---------0---0------1--------0---0------3---------------------
3|-------0---0---0------0----0---0---0------2-------------------
4|---(2)--------------------------------------------------------
5|------------------3------2------------------------------------
6|----0---------------------------------2-----------------------

razón,                          he borrado  la  raya que
    Em             C      G            D         Em
1|--------0---0------0--------3---3------2------------0---0-----
2|--------0---0------1--------0---0------3------------0---0-----
3|------0---0---0------0----0---0---0------2--------0---0---0---
4|--(2)--------------------------------0--------(2)-------------
5|-----------------3--------------------------------------------
6|---0--------------------3----------------------0--------------

  me separaba    de    tu      bendición
   C       G/B          A/C#         D
1|---0---------3---3------0--------------2---2----2--3--5--0----
2|---1---------0---0------3--------------3---3----3--3--3--1----
3|-----0-----0---0---0------0----------2---2---2--2--3--3--0----
4|-----------------------------------0---------------------x----
5|-3-------2------------4----------------------------------0----
6|--------------------------------------------------------------

1|--9--7--5------------------
2|---------------------------
3|--9--7--5------------------

--Coro--

  Ven...       go     hasta la cruz a rendir...      me
   G            D      Am7       C        G            D
1|-----3---3------2-------0---------0---------3---3------2------
2|-----0---0------3----------1---------1------0---0------3------
3|---0---0---0------2-----------------------0---0---0------2----
4|--------------0--------------------------------------0--------
5|---------------------0---------3------------------------------
6|-3--------------------------------------3---------------------

  SI quieres hoy RE--ci bir...      me     Vengo a ca-er a tus
   Am7        C   B   Am G            D      Am7       C
1|-----0---------------------3---3------2------0---------0------
2|--------1------------------0---0------3-----------1-------1---
3|--------------0---0------0---0---0------2---------------------
4|------------------------------------0-------------------------
5|-0----------3---2---0----------------------0---------3--------
6|-----------------------3--------------------------------------

  pies y a decirte por siempre eres tu mi
    Em        C          Am          D
1|-------0--0-----0--0-----0--0--------2--2---------------------
2|-------0--0-----1--1-----1--1--------3--3---------------------
3|--------------------------------------------------------------
4|-(2)-------------------------------0--------------------------
5|------------3----------0--------------------------------------
6|--0-----------------------------------------------------------

señor hoy te entrego las riendas...
  Em             C        Am
1|-----0----0------0--0-----------------------------------------
2|-----0----0------1--1-----1--1--1/3--3------------------------
3|--------------------------2--2--2/4--4------------------------
4|(2)-----------------------------------------------------------
5|---------------3--------0-------------------------------------
6|-0------------------------------------------------------------

--Coro--

  Ven...       go     hasta la cruz a rendir...      me
   G            D      Am7       C        G            D
1|-----3---3------2-------0---------0---------3---3------2------
2|-----0---0------3----------1---------1------0---0------3------
3|---0---0---0------2-----------------------0---0---0------2----
4|--------------0--------------------------------------0--------
5|---------------------0---------3------------------------------
6|-3--------------------------------------3---------------------

  SI quieres hoy RE--ci bir...      me     Vengo a ca-er a tus
   Am7        C   B   Am G            D      Am7       C
1|-----0---------------------3---3------2------0---------0------
2|--------1------------------0---0------3-----------1-------1---
3|--------------0---0------0---0---0------2---------------------
4|------------------------------------0-------------------------
5|-0----------3---2---0----------------------0---------3--------
6|-----------------------3--------------------------------------

  pies y a decirte por siempre eres tu mi
    Em        C          Am          D
1|-------0--0-----0--0-----0--0--------2--2--------
2|-------0--0-----1--1-----1--1--------3--3--------
3|-------------------------------------------------
4|-(2)-------------------------------0-------------
5|------------3----------0-------------------------
6|--0----------------------------------------------

señor hoy te entrego las riendas de mi corazón
  Em             C        Am7        D7
1|-----0----0------0--0-----0--0-----2-------------
2|-----0----0------1--1-----1--1-----1-------------
3|-----------------------------------2-------------
4|(2)--------------------------------0-------------
5|---------------3--------0------------------------
6|-0-----------------------------------------------

--Final--

   G        D/F#     Em     C    Am7
1|--------------------------0----------------------
2|-0-----1--0------------0--1----------------------
3|-----0--------0-2--0-2----0----------------------
4|---0--------0------2-4----2----------------------
5|--------------------------3----------------------
6|-3--------2--------0-----------------------------

 De MI corazón.           De MI... Corazón
    G        D/F#     Em     D7           G
1|--------------------------------------------------
2|--0-----1--0---------------3------------------0---
3|------0--------0-2--0------5----------------0-----
4|----0--------0------2------4--------------0-------
5|---------------------------5----------------------
6|--3--------2--------0-------------------3---------

Si tienes duda agregame

Saludos desde Chiapas-México
Suggest correction
Give kudos to tab author, rate the tab!
1 2 3 4 5
comments
print report bad tab
guest
You may want to rate the tab now too:
select rating
Wanna post a correction for this tab? Suggest correction