Oops, an error
Loading. Please wait.

Te Vengo A Bendecir Tab

13 views 1 this week
no commentswrite comment
1 2 3 4 5
3 more votes to show rating
add to favorites
launch autoscroll
font size
0
reset
how to read this tab
guitar tuner
×
Best way to learn
"Te Vengo A Bendecir"
Autoscroll
slow
fast
+/-
esc
set tempo
stop
Esto es sólo la introducción de la alabanza, es lo más simple
y decente que se puede tocar

e--2h4--|-------4---------------|----------------------|
B-------|--5-7----5/7--5-4h5-4--|--2-4-4h5-------------|
G-------|-----------------------|----------4/6-6h8p6-4-|
D-------|-----------------------|----------------------|
A-------|-----------------------|----------------------|
E-------|-----------------------|----------------------|

e--------7-----------7-----------7----|
B-----5----5------5----5------5----5--|
G--4-----------4-----------4----------|
D-------------------------------------|
A-------------------------------------|
E-------------------------------------|


Seb@stian Martin3z
Ministerios Vino Nuevo
Suggest correction
Give kudos to tab author, rate the tab!
1 2 3 4 5
comments
print report bad tab
guest
You may want to rate the tab now too:
select rating
Wanna post a correction for this tab? Suggest correction