Oops, an error
Loading. Please wait.

Tiene Tu Color Tab

22 views 1 this week
no commentswrite comment
1 2 3 4 5
3 more votes to show rating
add to favorites
launch autoscroll
font size
0
reset
how to read this tab
guitar tuner
Autoscroll
slow
fast
+/-
esc
set tempo
stop
hola Dios les bendiga este es el
intro de tiene tu color en guitarra
tambien tiene los bojos espero que
les 


e---------7--8--3-|---------7--8-----|-----------------------------
b-----------------|----------------6-|------------------5----------
g-----------------|--------|---------|-------------5--7--7--5--4--5
d----3--|---------|-----0--|---------|---0--------|----------------
a--3----|---------|---3----|---------|-----0--5--8|----------------
E-1-----|---------|--0-----|---------|------------|----------------
bajos              bajos                  bajos


e--------10--8--3-|---------7--8----|--------------5--7--8--7--5------
b-----------------|---------------6-|-----------------------------5--8
g-----------------|--------|--------|------------------------------
d----3--|---------|----0---|--------|--0--------|-------------------
a--3----|---------|--3-----|--------|----0--5--8|-------------------
E-1-----|---------|-0------|--------|-----------|-------------------
bajos              bajos            bajos


sin bajos


e---7--8----|---------7--8-----|--------------------------
b---------8-|----------------6-|---------------5-----------
g-----------|------------------|----------5--7---7--5--4--5


e---------10--8---|--------7--8----|-----------5--7--8--7--5------
b---------------8-|--------------6-|--------------------------5--8
Suggest correction
Give kudos to tab author, rate the tab!
1 2 3 4 5
comments
print report bad tab
guest
Wanna post a correction for this tab? Suggest correction